PrimaNota.ru - самый крупный в мире бесплатный архив песенных текстов, аккордов, табулатур и нот


Tyrone Wells - Always Love You - таба, видео

Регистрация Запомнить меня
Войти через:  Facebook Google Twitter Vk Yandex Mail.ru

Tyrone Wells - Always Love You - таба, видео

Печатать
Просмотров: 137
Уроки эстрадного вокала в Санкт-Петербурге
-------------------------------------------------------------------------------
                         Always Love You - Tyrone Wells
-------------------------------------------------------------------------------
Tabbed by: mgwilson15

Beautiful song by Tyrone Wells on his album Roll With It I hope I did it 
justice, comment any corrections and rate it if you like it! Enjoy!

Tuning: Standard
Capo 2


Intro:
e|-------------------------------------------------------------------|
B|--3-------3-------5-------5------7-------7------8-------8----------|
G|------0-----0---------0-----0--------0-----0--------0-----0--------|
D|----0---------------0--------------0--------------0----------------|
A|-------------------------------------------------------------------|
E|--3---------------5--------------7--------------8------------------|

e|-------------------------------------------------------------------|
B|--3-------3-------5-------5------7-------7------8-------8----------|
G|------0-----0---------0-----0--------0-----0--------0-----0--------|
D|----0---------------0--------------0--------------0----------------|
A|-------------------------------------------------------------------|
E|--3---------------5--------------7--------------8------------------|

e|----------------------------------------------|
B|--8-------8------8-------8------8-------8-----|
G|------0-----0--------0-----0--------0-----0---|
D|----0--------------0--------------0-----------|
A|----------------------------------------------|
E|--8--------------8--------------8-------------|

Verse 1:
    G                             C
    In my eyes you'll always be a princess and the world to me
e|---------------------------------------------------------------|
B|--3-------3------3-------3------3-------3------3-------3-------|
G|------0-----0--------0-----0--------0-----0--------0-----0-----|
D|----0--------------0--------------2--------------2-------------|
A|--------------------------------3--------------3---------------|
E|--3--------------3---------------------------------------------|
    
     G                           D/F# 
More wonderful than any twinkling star
e|---------------------------------------------------------------|
B|--3-------3------3-------3------3-------3------3-----3---------|
G|------0-----0--------0-----0--------2-----2--------2---2-------|
D|----0--------------0--------------0--------------0-------------|
A|---------------------------------------------------------------|
E|--3--------------3--------------2--------------2---------------|

   G                               C
   I will guard your innocence and all I ask in recompense 
e|---------------------------------------------------------------|
B|--3-------3------3-------3------3-------3------3-------3-------|
G|------0-----0--------0-----0--------0-----0--------0-----0-----|
D|----0--------------0--------------2--------------2-------------|
A|--------------------------------3--------------3---------------|
E|--3--------------3---------------------------------------------|
            G                                  D/F#
Is that you know the truth inside your father's heart
e|---------------------------------------------------------------|
B|--3-------3------3-------3------3-------3------3-----3---------|
G|------0-----0--------0-----0--------2-----2--------2---2p0-----|
D|----0--------------0--------------0--------------0-------------|
A|---------------------------------------------------------------|
E|--3--------------3--------------2--------------2---------------|

Pre chorus:
   Am                             C
                   I hope you remember 
e|---------------------------------------------------------------|
B|--1-------1------1-------1------1-------1-----0h1------1-------|
G|------2-----2--------2-----2--------0-----0---------0-----0----|
D|----2--------------2--------------2---------------2------------|
A|--0--------------0--------------3-------------3----------------|
E|---------------------------------------------------------------|

   Am
                   Don't you dare forget
e|-------------------------------------|
B|--1-------1------1-------1------3----|
G|------2-----2--------2-----2---------|
D|----2--------------2-----------------|
A|--0--------------0--------------5----|
E|-------------------------------------|

Chorus:
          C
I will always love you 
e|---------------------------------------------------------------|
B|--3-------3------3-------3------3-------3------3-------3-------|
G|------0-----0--------0-----0--------0-----0--------0-----0-----|
D|----2--------------2--------------2--------------2-------------|
A|--3--------------3--------------3--------------3---------------|
E|---------------------------------------------------------------|

         Em                                      
I will always love you,                         it's just a simple
e|---------------------------------------------------------------|
B|--3-------3-------3------3------3-------3------3-------3-------|
G|------0-----0--------0-----0--------0-----0--------0-----0-----|
D|----2--------------2--------------2--------------2-------------|
A|---------------------------------------------------------------|
E|--0--------------0--------------0--------------0---------------|
 
    C                         D/F#
   Truth but what else could I do
e|---------------------------------------------------------------|
B|--3-------3------3-------3------3-------3------3-------3-------|
G|------0-----0--------0-----0--------2-----2--------2-----2-----|
D|----2--------------2--------------0--------------0-------------|
A|--3--------------3---------------------------------------------|
E|--------------------------------2--------------2---------------|
        Em                      D/F#
I will always                    love you
e|---------------------------------------------------------------|
B|--3-------3------3-------3------3-------3------3-------3-------|
G|------0-----0--------0-----0--------2-----2--------2-----2-----|
D|----2--------------2--------------0--------------0-------------|
A|---------------------------------------------------------------|
E|--0--------------0--------------2-------------2----------------|

Refrain: (Intro)
e|---------------------------------------------------------------|
B|--3-------3-------5-------5------7-------7------8-------8------|
G|------0-----0---------0-----0--------0-----0--------0-----0----|  (2x)
D|----0---------------0--------------0--------------0------------|
A|---------------------------------------------------------------|
E|--3---------------5--------------7--------------8--------------|

e|----------------------------------------------|
B|--8-------8------8-------8------8-------8-----|
G|------0-----0--------0-----0--------0-----0---| Play at the end of the
D|----0--------------0--------------0-----------|      repeated line
A|----------------------------------------------|
E|--8--------------8--------------8-------------|

Verse 2: 
    G                               C
   You will grow up way to fast and leave me wishing for the past
e|---------------------------------------------------------------|
B|--3-------3------3-------3------3-------3------3-------3-------|
G|------0-----0--------0-----0--------0-----0--------0-----0-----|
D|----0--------------0--------------2--------------2-------------|
A|--------------------------------3--------------3---------------|
E|--3--------------3---------------------------------------------|
    
     G                           D/F# 
Back when you were still a daddy's girl
e|---------------------------------------------------------------|
B|--3-------3------3-------3------3-------3------3-----3---------|
G|------0-----0--------0-----0--------2-----2--------2---2-------|
D|----0--------------0--------------0--------------0-------------|
A|---------------------------------------------------------------|
E|--3--------------3--------------2--------------2---------------|

   G                                       C
And so I'll hold on to the memories of that little girl upon my knee
e|---------------------------------------------------------------|
B|--3-------3------3-------3------3-------3------3-------3-------|
G|------0-----0--------0-----0--------0-----0--------0-----0-----|
D|----0--------------0--------------2--------------2-------------|
A|--------------------------------3--------------3---------------|
E|--3--------------3---------------------------------------------|

   G                               D/F#
   That little girl that forever changed the world
e|---------------------------------------------------------------|
B|--3-------3------3-------3------3-------3------3-----3---------|
G|------0-----0--------0-----0--------2-----2--------2---2p0-----|
D|----0--------------0--------------0--------------0-------------|
A|---------------------------------------------------------------|
E|--3--------------3--------------2--------------2---------------|

Pre chorus:
    Am                           C
                   I hope you remember 
e|---------------------------------------------------------------|
B|--1-------1------1-------1------1-------1-----0h1------1-------|
G|------2-----2--------2-----2--------0-----0---------0-----0----|
D|----2--------------2--------------2---------------2------------|
A|--0--------------0--------------3-------------3----------------|
E|---------------------------------------------------------------|

    Am
                   Don't you dare forget
e|-------------------------------------|
B|--1-------1------1-------1------3----|
G|------2-----2--------2-----2---------|
D|----2--------------2-----------------|
A|--0--------------0--------------5----|
E|-------------------------------------|

Chorus:
        C
I will always love you 
e|---------------------------------------------------------------|
B|--3-------3------3-------3------3-------3------3-------3-------|
G|------0-----0--------0-----0--------0-----0--------0-----0-----|
D|----2--------------2--------------2--------------2-------------|
A|--3--------------3--------------3--------------3---------------|
E|---------------------------------------------------------------|

        Em
I will always love you,                         it's just a simple
e|---------------------------------------------------------------|
B|--3-------3------3-------3------3-------3------3-------3-------|
G|------0-----0--------0-----0--------0-----0--------0-----0-----|
D|----2--------------2--------------2--------------2-------------|
A|---------------------------------------------------------------|
E|--0--------------0--------------0--------------0---------------|
 
    C                         D/F#
   Truth but what else could I do
e|---------------------------------------------------------------|
B|--3-------3------3-------3------3-------3------3-------3-------|
G|------0-----0--------0-----0--------2-----2--------2-----2-----|
D|----2--------------2--------------0--------------0-------------|
A|--3--------------3---------------------------------------------|
E|--------------------------------2--------------2---------------|
 
         Em                      D/F#
I will always                    love you
e|---------------------------------------------------------------|
B|--3-------3------3-------3------3-------3------3-------3-------|
G|------0-----0--------0-----0--------2-----2--------2-----2-----|
D|----2--------------2--------------0--------------0-------------|
A|---------------------------------------------------------------|
E|--0--------------0--------------2-------------2----------------|

Bridge:
              Em                                           C
And when your heart breaks my heart will break when your dreams 
come true my dreams do
e|---------------------------------------------------------------|
B|--3-------3------3-------3------3-------3------3-------3-------|
G|------0-----0--------0-----0--------0-----0--------2-----2-----|
D|----2--------------2--------------2--------------0-------------|
A|--------------------------------3--------------3---------------|
E|--0--------------0---------------------------------------------|

    G                               D/F#
It doesn't matter what you're going through
e|------------------------------------------|
B|--3-------3------3-------3------3---------|
G|------0-----0--------0-----0--------------|
D|----0--------------0----------------------|
A|------------------------------------------|
E|--3--------------3--------------2---------|

Chorus:
        C
See I will always love you 
e|---------------------------------------------------------------|
B|--3-------3------3-------3------3-------3------3-------3-------|
G|------0-----0--------0-----0--------0-----0--------0-----0-----|
D|----2--------------2--------------2--------------2-------------|
A|--3--------------3--------------3--------------3---------------|
E|---------------------------------------------------------------|

        Em
I will always love you,                         it's just a simple
e|---------------------------------------------------------------|
B|--3-------3------3-------3------3-------3------3-------3-------|
G|------0-----0--------0-----0--------0-----0--------0-----0-----|
D|----2--------------2--------------2--------------2-------------|
A|---------------------------------------------------------------|
E|--0--------------0--------------0--------------0---------------|
 
    C                         D/F#
   Truth and what else could I do
e|---------------------------------------------------------------|
B|--3-------3------3-------3------3-------3------3-------3-------|
G|------0-----0--------0-----0--------2-----2--------2-----2-----|
D|----2--------------2--------------0--------------0-------------|
A|--3--------------3---------------------------------------------|
E|--------------------------------2--------------2---------------|
 
        C
I will always love you 
e|---------------------------------------------------------------|
B|--3-------3------3-------3------3-------3------3-------3-------|
G|------0-----0--------0-----0--------0-----0--------0-----0-----|
D|----2--------------2--------------2--------------2-------------|
A|--3--------------3--------------3--------------3---------------|
E|---------------------------------------------------------------|

        Em
Oh I will always love you,                    sometimes you will 
e|---------------------------------------------------------------|
B|--3-------3------3-------3------3-------3------3-------3-------|
G|------0-----0--------0-----0--------0-----0--------0-----0-----|
D|----2--------------2--------------2--------------2-------------|
A|---------------------------------------------------------------|
E|--0--------------0--------------0--------------0---------------|

    C                         D/F#
    Fly,    sometimes you will fall              till the day I
e|---------------------------------------------------------------|
B|--3-------3------3-------3------3-------3------3-------3-------|
G|------0-----0--------0-----0--------2-----2--------2-----2-----|
D|----2--------------2--------------0--------------0-------------|
A|--3--------------3---------------------------------------------|
E|--------------------------------2--------------2---------------|

   C                         D/F#
   Die,   daughter through it all
e|---------------------------------------------------------------|
B|--3-------3------3-------3------3-------3------3-------3-------|
G|------0-----0--------0-----0--------2-----2--------2-----2-----|
D|----2--------------2--------------0--------------0-------------|
A|--3--------------3---------------------------------------------|
E|--------------------------------2--------------2---------------|

         Em                      D/F#
I will always                   love you
e|-----------------------------------|
B|--3-------3------3-------3------3--|
G|------0-----0--------0-----0-------|
D|----2--------------2---------------|
A|-----------------------------------|
E|--0--------------0--------------2--|

Outro:
e|-------------------------------------------------------------------|
B|--3-------3-------5-------5------7-------7------8-------8----------|
G|------0-----0---------0-----0--------0-----0--------0-----0--------|  (2x)
D|----0---------------0--------------0--------------0----------------|
A|-------------------------------------------------------------------|
E|--3---------------5--------------7--------------8------------------|

e|-------------------------------------------------------------------|
B|--8-------8------10-------10------8-------8-------7------7---------|
G|------0-----0---------0------0---------0-----0--------0----0-------|
D|----0---------------0----------------0--------------0--------------|
A|-------------------------------------------------------------------|
E|--8--------------8----------------8---------------8----------------|

e|-------------------3---|
B|--8-------8--------3---|
G|------0-----0------0---|
D|----0--------------0---|
A|-------------------2---|
E|--8----------------3---|


For a fuller sound, you can play the picking pattern like this just changing
the chord shape. I had this in my original version but Wells plays it like the
tab above.
e|---------------------------------------------------------------|
B|--3-------3-------5-------5------7-------7------8-------8------|
G|------0-----0---------0-----0--------0-----0--------0-----0----| 
D|----0---------0-----0---------0----0---------0----0---------0--|
A|---------------------------------------------------------------|
E|--3-----3---------5-----5--------7-----7--------8-----8--------|

************************************

| /   slide up
| \   slide down
| h   hammer-on
| p   pull-off

************************************
Добавлено: 15.06.2016
Другие материалы по этой песне:
  • Аккорды и текст

Страница создана 15.06.2016
http://primanota.ru/tyrone-wells/always-love-you-chords.htm
Привет, Гость.
Предлагаем пройти революционный курс по гитаре.
Подарок от PrimaNota.Ru, забирай!