PrimaNota.ru - самый крупный в мире бесплатный архив песенных текстов, аккордов, табулатур и нот


Typhoon - Surfen - бас-таба, видео

Регистрация Запомнить меня
Войти через:  Facebook Google Twitter Vk Yandex Mail.ru

Typhoon - Surfen - бас-таба, видео

Печатать
Просмотров: 110
-------------------------------------------------------------------------------
                             Surfen - Typhoon
-------------------------------------------------------------------------------
Tabbed by: Peter Jan
E-mail: 

Tuning: EADG

Repeat this throughout the whole song. Cut off at the #10 when you're about to start the (pre-)chorus.

G|------------10--------10-----#10-9-------------------------------------------|
D|-------7/-10-----10-10---10-------9-----------------------------------------|
A|--8--8--------8--------------------7-7-7-7----------------------------------|
E|-------------------------------------------0--0-0-0--0-15\------------------|

Variation

G|------------10--------10-----10h12-10---------------------------------------|
D|-------7/-10-----10-10---10-----------9-------------------------------------|
A|--8--8--------8------------------------7-7-7-7------------------------------|
E|-----------------------------------------------0--0-0-0--0-15\--------------|

Feel free to post corrections or things that should be added!


| /  slide up
| \  slide down
| h  hammer-on
| p  pull-off
| ~  vibrato
| +  harmonic
| x  Mute note
===============================================================================
Добавлено: 02.08.2015
Вам также может быть интересно:
Другие материалы по этой песне:
  • Аккорды и текст

Страница создана 02.08.2015
http://primanota.ru/typhoon/surfen-chords.htm
Привет, Гость.
Предлагаем пройти революционный курс по гитаре.
Подарок от PrimaNota.Ru, забирай!