PrimaNota.ru - самый крупный в мире бесплатный архив песенных текстов, аккордов, табулатур и нот


Typecast - Scars Of A Falling Heart - таба, видео

Регистрация Запомнить меня
Войти через:  Facebook Google Twitter Vk Yandex Mail.ru

Typecast - Scars Of A Falling Heart - таба, видео

Печатать
Просмотров: 82
Title: Scars of a Falling Heart
Artist: Typecast
Album: Infatuation is Always There

etoh tama tlga toh kc kapa koh eh....! angal kayo....?! nyahahahahah....!

/= Slide

STANDARD Tuning

Intro:
e|----------------------------------------------------------------------|
B|----------------------------------------------------------------------|
G|-----7-------7---------9---------11-------4-------4---------5-------5-|
D|---0---0---0---0-----0---0-----0----0---0---0---0---------0---0---0---|
A|-5-------5-------5/7-------7/9--------2-------2-----2/3-3-------3-----|
E|----------------------------------------------------------------------|

e|--------------------------------------------------------------------|
B|--------------------------------------------------------------------|
G|----------7-------7---------9---------11-------4-------4------5-----|
D|--------0---0---0---0-----0---0-----0----0---0---0---0--------0-----|
A|--3/5-5-------5-------5/7-------7/9--------2-------2-----2/3—-3-----|
E|--------------------------------------------------------------------|

Verse:
e|-----------------------------------------------------------------|
B|-----------------------------------------------------------------|
G|---7--------------7---------------4------------------------------|
D|---7--------------7---------------4----------------5-------------| 2x
A|---5--------------4---------------2----------------5-------------|
E|---------------------------------------------------3-------------|
  Broken hopes falling away.......................................

Pre-Chorus:
e|---------------------------------------------|
B|---------------------------------------------|
G|---4-----------------------------------------|
D|---4-----------------7------------------5----| 4x
A|---2-----------------7------------------5----|
E|---------------------5------------------3----|
  Everything's failing with thoughts of you....

Chorus: 4x
Same Chords ng Verse pro mabilis na ung part dun, tansyahin nyo nalng.......

Outro:
e|------------------|--|----------------------------------------------|
B|------------------|--|----------------------------------------------|
G|--7---7---4-------|--|--7-----------------------------------5-------|
D|--7---7---4---5---|2x|--7-----------------------------------5-------|
A|--5---4---2---5---|--|--5--7-8--8/10-8-7--5—7-8--8/10--8-7--3-------|
E|--------------3---|--|----------------------------------------------|

End:

Sequence:

Intro
Verse
Pre-Chorus
Chorus
Intro
Verse
Pre-Chorus
Chorus
Outro
Добавлено: 20.06.2012
Другие материалы по этой песне:
  • Аккорды и текст

Страница создана 20.06.2012
http://primanota.ru/typecast/scars-of-a-falling-heart-chords.htm
Привет, Гость.
Предлагаем пройти революционный курс по гитаре.
Подарок от PrimaNota.Ru, забирай!