PrimaNota.ru - самый крупный в мире бесплатный архив песенных текстов, аккордов, табулатур и нот


Typecast - Phoenix - аккорды и текст, таба, бас-таба, видео

Регистрация Запомнить меня
Войти через:  Facebook Google Twitter Vk Yandex Mail.ru

Typecast - Phoenix - аккорды и текст, таба, бас-таба, видео

Печатать
Просмотров: 289
Уроки эстрадного вокала в Санкт-Петербурге
Phoenix
Typecast
Typecast
Phoenix
Ragnarok Soundtrack
Tabbed by: paramore_fans@yahoo.com

Tuning: Drop D all guitars

Chords used:
D5 - 000xxx
G5 - 555xxx
E5 - 222xxx

* - means harmonics
~ - means hold
x - means palm mute

Part 1:

Guitar 1:
e|-------------|
B|-------------|
G|--5*~--------|
D|-------4*~---|
A|-------------|
D|-------------|

Part 2:
e|--------------------|
B|--------------------|
G|--------------------|
D|-11-11--11--11--11--|
A|-9---9---9---9---9--|
D|-9---9---9---9---9--|

Guitar 2:
e|-------------|
B|-------------|
G|-2-----------|
D|---4--0------|
A|--------4~---|
D|-------------|

Guitar 1:
e|--------------------|
B|--------------------|
G|--------------------|
D|-11-11--11--11--11--|
A|-9---9---9---9---9--|
D|-9---9---9---9---9--|

Guitar 2:
e|---------------|
B|---------------|
G|-2-------------|
D|---4--0------2-|
A|--------4~-0---|
D|---------------|
(Repeat Part 2)

Part 3:
Guitar 1:
e|--------------------|
B|--------------------|
G|--------------------|
D|-11-11--11--11--11--|
A|-9---9---9---9---9--|
D|-9---9---9---9---9--|

Guitar 2:
e|-0h2---------------|
B|-----0h2-----------|
G|---------2h4-------|
D|-------------2h4---|
A|-----------------4-|
D|-------------------|

Guitar 1:
e|--------------------|
B|--------------------|
G|--------------------|
D|-11-11--11--11--11--|
A|-9---9---9---9---9--|
D|-9---9---9---9---9--|

Guitar 2:
e|-0h2-----------------|
B|-----0h2-------------|
G|---------2h4-----2---|
D|-------------2h4-----|
A|-------------------4-|
D|---------------------|
(Repeat Part 3)


Verse 1:
D5(hold)
  I rise above the clouds
G5
  Your voice gets me alive
D5(hold)
  I spread my wings and fly
G5
  I return for you again my love


Refrain:
E5
  I kept all that I came and
                    G5
  Smelling out your eyesight
        E5
  Am I strong enough to be with you again?
         G5
  If I'm not, I'll stretch my arms to hold you


Guitar 2: After Refrain Before chorus
e|-------0--|
B|-2--3-----|
G|----------|
D|----------|
A|----------|
D|----------|


Chorus:
    D5               G5
I'm running, hold me tight once more
    E5          G5
And slowly will pick up the pieces with most

D5(hold)


Post Chorus: This part is the coolest, both guitars do this one.
e|-----------------------------------------------------|
B|-----------------------------------------------------|
G|-------7-7-7-------9-9-9-------11-11-11-------6-6-6--|
D|-0-0-0-x-x-x-0-0-0-x-x-x-0-0-0--x--x--x-0-0-0-x-x-x--| (x4)
A|-0-0-0-5-5-5-0-0-0-7-7-7-0-0-0--9--9--9-0-0-0-4-4-4--|
D|-0-0-0-------0-0-0-------0-0-0----------0-0-0--------|
   x x x       x x x       x x x          x x x

Then do this one
e|-------------7-5---7-5---------------3-2---3-2-------------5-----5--7---|
B|-----------------7-----7-----------------3---------------------7------7-|
G|-------------------------------------------------------------7-----7----|
D|-0-0-0-0-0-0-------------0-0-0-0-0-0-----------0-0-0-0-0-0--------------|
A|-0-0-0-0-0-0-------------0-0-0-0-0-0-----------0-0-0-0-0-0--------------|
D|-0-0-0-0-0-0-------------0-0-0-0-0-0-----------0-0-0-0-0-0--------------|
   x x x x x x             x x x x x x           x x x x x x

e|-----------------0-----0-|
B|-------------2h3---2h3---|
G|-------------------------|
D|-0-0-0-0-0-0-------------|
A|-0-0-0-0-0-0-------------|
D|-0-0-0-0-0-0-------------|
   x x x x x x


Verse 2:
D5(Hold)
  Better sight for I'm rolling but
  G5
  One glorious sweet
D5(Hold)
  I'm your log night against all the
     G5
  Brazil I need you here


Refrain 2:
E5
  I kept all that I came and
                    G5
  Smelling out your eyesight
        E5
  Am I strong enough to be with you again?
         G5
  If I'm not, I'll stretch my arms for you to hold

(Repeat Chorus twice)

Bass Solo: x2
G|-------------------------------------------------------------------------|
D|----------12----12----------12----12----------14----14----------17----17-|
A|-------------12----------------12----------------12----------------17----|
D|-12-12-12----------12-12-12----------12-12-12----------12-12-12----------|

(Repeat Post Chorus until fade out)
Добавлено: 27.07.2012
Другие материалы по этой песне:
  • Аккорды и текст

Страница создана 05.03.2012
http://primanota.ru/typecast/phoenix-chords.htm
Привет, Гость.
Предлагаем пройти революционный курс по гитаре.
Подарок от PrimaNota.Ru, забирай!