PrimaNota.ru - самый крупный в мире бесплатный архив песенных текстов, аккордов, табулатур и нот


Typecast - My Farewell - текст песни, таба, видео

Регистрация Запомнить меня
Войти через:  Facebook Google Twitter Vk Yandex Mail.ru

Typecast - My Farewell - текст песни, таба, видео

Печатать
Просмотров: 131
Artist:Typecast
Album:Every Moss and Cobweb
Song:My Farewell
Email:alexisonfire066@yahoo.com

. - palm mute
/ - slide
x - dead string
~ - let it ring
* - harmonics
h - hammer om
p - pull-off


Dropped D Tuning

Guitar 1 (Bright Crunch Distortion)           Guitar 2 (Clean with chorus and reverb)
e|------------------------------------------- --------------------------------------------------------|
B|------------------------------------------- ----9------9-------9----9-----9------9------9------9----|
G|---------------------66666666--66666666---- --9-----9-------9-----9---------9---9--9---------9------|
D|-77777777--77777777--66666666--66666666---- --------------7-----7-----7-7-----7------7-7---7--------|
A|-77777777--77777777--44444444--44444444---- --------------------------------------------------------|
D|-77777777--77777777------------------------ --------------------------------------------------------|
   .......   .......   ........  ........  
Verse

Guitar 1 Not sure with the notes to pick but it sounds well
e|-----------------------------------------------------------------------|
B|--2-------2-----------2------------------------------------------------|
G|--2----2----2----2------------6---------6---------6----6---------------|
D|-----0--------0----0-------6----6----6-----6----6----------------------|
A|------------------------4---------4-----------4-----4------------------|
E|-----------------------------------------------------------------------|

Gtr 2 Distorted 
e|-------------------------------------------------------------------------------------|
B|------------------------------12-12--------------------12-12-------------------------|
g|---------9----------0-----9----------11-11h13p11-9-10p9-------11-11h13p11-9----------|
g|------9-----9----9-----9-------------------------------------------------------------|
d|----7---------7----------------------------------------------------------------------|
a|-------------------------------------------------------------------------------------|
e|-------------------------------------------------------------------------------------|

Pre-Chorus 

e|-------------------------|
B|-------------------------|
G|--88888888-/-9999999999--|
D|--xxxxxxxx---xxxxxxxxxx--|
A|--66666666-/-7777777777--|
D|-------------------------|
       
Chorus

Guitar 1
e|--44444444444444---------------------|
B|--xxxxxxxxxxxxxx---------------------|
G|--22222222222222---6--6--6--6--------|
D|-------------------6--6--6--6--------|
A|-------------------4--4--4--4--------|
E|-------------------------------------|
                      .  .  .  .

Guitar 2                                         
e|---------------------------------------------------------------------------------|
B|--------------------------------------------------------9*-----------------------|
G|-14141414-/-17171717171717-/-161616161616------------9*----9*----------8h9p8h9p8-| 
D|-xxxxxxxx---xxxxxxxxxxxxxx---xxxxxxxxxxxx---1111111-----------11111111-----------|
A|-12121212-/-15151515151515-/-141414141414---1111111-----------11111111-----------|
D|--------------------------------------------1111111-----------11111111-----------|
                                              . . . .           . . . .
Repeat Verse
Then Chorus

Bridge

Gtr 1                          Gtr 2
e|---------------------------  --------------------------
B|---------------------------  ---9----------------------
G|---------------------------  ----8h9p8h9h11p9p8h9p8h9--
D|--7~-7777--7~-7777---------  --------------------------
A|--7~-7777--7~-7777---------  --------------------------
D|--7--7777--7--7777---------  --------------------------
       ....     ....
Gtr 1
e|--------------------------------------------------------          --------------------|
B|--------------------------------------------------------          --------------------|
G|--------------------------------------------------------          --------------------|
D|-1414141414141414-1111111111111-9999999999--7777777777-- 2x Then  --7~-7777-7~-7777---|
A|-1414141414141414-1111111111111-9999999999--7777777777--          --7~-7777-7~-7777---|
D|-1414141414141414-1111111111111-9999999999--7777777777--          --7~-7777-7~-7777---| 

                                                                         ....    ...

Repeat Chorus

Outro

Gtrs 1 & 2
e|----------------------------------------------------------------|
B|----------------------------------------------------------------|
G|-7777/9999/111111/9999-------/16161616/14141414/12121212/14~----|
D|-xxxx-xxxx--xxxxx-xxxx-(2x)----xxxxxxx--xxxxxxx--xxxxxxx--x-----| Repeat 2x
A|-5555/7777/-99999/7777-------/14141414/12121212/10101010/12~----|
E|----------------------------------------------------------------|



My Farewell 

Now I know I should go
Cause you left me here
I'm lost without you 
You ended this day
The day I wished that never came
I'm lost without you 
Let this paper be my ticket
A one way ride to nowhere
For I have worth 
This is my goodbye 

Добавлено: 28.05.2012
Другие материалы по этой песне:
  • Аккорды и текст

Страница создана 27.02.2012
http://primanota.ru/typecast/my-farewell-chords.htm
Привет, Гость.
Предлагаем пройти революционный курс по гитаре.
Подарок от PrimaNota.Ru, забирай!