PrimaNota.ru - самый крупный в мире бесплатный архив песенных текстов, аккордов, табулатур и нот


Typecast - Holiday - таба, видео

Регистрация Запомнить меня
Войти через:  Facebook Google Twitter Vk Yandex Mail.ru

Typecast - Holiday - таба, видео

Печатать
Просмотров: 62
Title:Holiday
Artist:Typecast

kayu na lang kumapa sa straming
pakinggan nyo nalang yung kanta para makuha nyo
 

intro: 
|------------------------|
|------------------------|
|--------pickslide-------|
|--////////////////////--| 
|--////////////////////--|
|------------------------|

|-----------------|-----------|----------|
|-----------------|-----------|----------|
|--9--11--13--11--|13131313---|--11-9-8--|
|--x--x---x---x---|xxxxxxxx-3x|--x--x-x--|
|--7--9---11--9---|11111111---|--9--7-6--|
|-----------------|-----------|----------|

|-----------------|-----------|-----------|
|-----------------|-----------|-----------|
|--9--11--13--11--|11111111---|--13-11-9--|
|--x--x---x---x---|x-x-x-x--3x|--x--x--x--|
|--7--9---11--9---|9-9-9-9----|--11-9--7--|
|-----------------|-----------|-----------|

verse 1:
|-----------------|-----------|----------|
|-----------------|-----------|----------|
|--9--11--13--11--|13131313---|--11-9-8--|
|--x--x---x---x---|xxxxxxxx-3x|--x--x-x--|
|--7--9---11--9---|11111111---|--9--7-6--|
|-----------------|-----------|----------|
                                             2x
|-----------------|-----------|-----------|
|-----------------|-----------|-----------|
|--9--11--13--11--|11111111---|--13-11-9--|
|--x--x---x---x---|x-x-x-x--3x|--x--x--x--|
|--7--9---11--9---|9-9-9-9----|--11-9--7--|
|-----------------|-----------|-----------|

verse 2:
|-------------------------|
|-------------------------|
|--11-11--9---pickslide---|
|--x--x---x--///////////--|
|--9--9---7--///////////--|
|-------------------------|

|--------------|------|---------------------------------|
|-------11-----|------|-------11-----9-10-121212121212--|
|--9-11-x--11--|999---|--9-11-x--11--x-x--x-x-x-x-x-x---|
|--x-x--x--x---|xxx-3x|--x-x--x--x---x-x--x-x-x-x-x-x---|
|--7-9--9--9---|777---|--7-9--9--9---6-7--9-9-9-9-9-9---|
|--------------|------|---------------------------------|

chorus:
|-------------------------------------------------------------------|
|------------------------2222---------------------------------------|
|--9-98-8-9-98-----------2222-2x-----------15151515----13131313-----|
|--x-xx-x-x-xx--7777-----2222-----5555-----x-x-x-x--2x-x-x-x-x--2x--|
|--7-77-7-7-77--7777-3x-----------5555-2x--13131313----11111111-----|
|---------------5555--------------3333------------------------------|

|------------------------------------------------------------------|
|---------------9-9-12-10--9-9-12-10--9-9-9-9-9-9-9-9-9-9-9-9------|
|--7777----9-----9-9--9--9--9-9--9--9--9-9-9-9-9-9-9-9-9-9-9-9-11--|
|--xxxx-2x-x---------------------------------------------------x---|
|--5555----7---------------------------------------------------9---|
|------------------------------------------------------------------|

intro:
|-----------------|-----------|----------|
|-----------------|-----------|----------|
|--9--11--13--11--|13131313---|--11-9-8--|
|--x--x---x---x---|xxxxxxxx-3x|--x--x-x--|
|--7--9---11--9---|11111111---|--9--7-6--|
|-----------------|-----------|----------|

|-----------------|-----------|-----------|
|-----------------|-----------|-----------|
|--9--11--13--11--|11111111---|--13-11-9--|
|--x--x---x---x---|x-x-x-x--3x|--x--x--x--|
|--7--9---11--9---|9-9-9-9----|--11-9--7--|
|-----------------|-----------|-----------|

verse 1:
|-----------------|-----------|----------|
|-----------------|-----------|----------|
|--9--11--13--11--|13131313---|--11-9-8--|
|--x--x---x---x---|xxxxxxxx-3x|--x--x-x--|
|--7--9---11--9---|11111111---|--9--7-6--|
|-----------------|-----------|----------|
                                             2x
|-----------------|-----------|-----------|
|-----------------|-----------|-----------|
|--9--11--13--11--|11111111---|--13-11-9--|
|--x--x---x---x---|x-x-x-x--3x|--x--x--x--|
|--7--9---11--9---|9-9-9-9----|--11-9--7--|
|-----------------|-----------|-----------|

verse 2:
|-------------------------|
|-------------------------|
|--11-11--9---pickslide---|
|--x--x---x--///////////--|
|--9--9---7--///////////--|
|-------------------------|

|--------------|------|---------------------------------|
|-------11-----|------|-------11-----9-10-121212121212--|
|--9-11-x--11--|999---|--9-11-x--11--x-x--x-x-x-x-x-x---|
|--x-x--x--x---|xxx-3x|--x-x--x--x---x-x--x-x-x-x-x-x---|
|--7-9--9--9---|777---|--7-9--9--9---6-7--9-9-9-9-9-9---|
|--------------|------|---------------------------------|

chorus:
|-------------------------------------------------------------------|
|------------------------2222---------------------------------------|
|--9-98-8-9-98-----------2222-2x-----------15151515----13131313-----|
|--x-xx-x-x-xx--7777-----2222-----5555-----x-x-x-x--2x-x-x-x-x--2x--|
|--7-77-7-7-77--7777-3x-----------5555-2x--13131313----11111111-----|
|---------------5555--------------3333------------------------------|
                                                                /---many times---\
|---------------------------------------------------------------101010101010101010--|
|---------------9-9-12-10--9-9-12-10--9-9-9-9-9-9-9-9-9-9-9-9-9-x-1212121212121212--|
|--7777----9-----9-9--9--9--9-9--9--9--9-9-9-9-9-9-9-9-9-9-9-9-99-9-9-9-9-9-9-9-9---|
|--xxxx-2x-x------------------------------------------------------------------------|
|--5555----7------------------------------------------------------------------------|
|-----------------------------------------------------------------------------------|

|----------------------------------------------------------------------------------------|
|----------------------------------------------------------------------------------------|
|--9-9-99-99-99-99-9-9-9-1111-1111-1111-1111-11-11-11-13-13-1313-13-13-15-15-1515-15-15--|
|--x-x-xx-xx-xx-xx-x-x-x-x-x--x-x--x-x--x-x--x--x--x--x--x--x-x--x--x--x--x--x-x--x--x---|
|--7-7-77-77-77-77-7-7-7-9-9--9-9--9-9--9-9--9--9--9--11-11-1111-11-11-13-13-1313-13-13--|
|----------------------------------------------------------------------------------------|

|---------------------------------------|
|--16161616----18181818----20202020-----|
|--x-x-x-x--4x-x-x-x-x--4x-x-x-x-x--4x--|
|--x-x-x-x-----x-x-x-x-----x-x-x-x------|
|--13131313----15151515----17171717-----|
|---------------------------------------|

chorus:
|-------------------------------------------------------------------|
|------------------------2222---------------------------------------|
|--9-98-8-9-98-----------2222-2x-----------15151515----13131313-----|
|--x-xx-x-x-xx--7777-----2222-----5555-----x-x-x-x--2x-x-x-x-x--2x--|
|--7-77-7-7-77--7777-3x-----------5555-2x--13131313----11111111-----|
|---------------5555--------------3333------------------------------|

|----------------------------------------------------------|
|----------------------------------------------------------|
|--7777----9999--------------------------------------9--9--|
|--xxxx-2x-xxxx-2x--7777----9999----7777----9999-----9--9--|
|--5555----7777-----7777-2x-9999-2x-7777-2x-9999-2x--7--7--|
|-------------------5555----7777----5555----7777-----------|



By:PHLP RYS
Добавлено: 25.06.2013
Другие материалы по этой песне:
  • Аккорды и текст

Страница создана 25.06.2013
http://primanota.ru/typecast/holiday-chords.htm
Привет, Гость.
Предлагаем пройти революционный курс по гитаре.
Подарок от PrimaNota.Ru, забирай!