PrimaNota.ru - самый крупный в мире бесплатный архив песенных текстов, аккордов, табулатур и нот


Typecast - Guiltkill - таба, видео

Регистрация Запомнить меня
Войти через:  Facebook Google Twitter Vk Yandex Mail.ru

Typecast - Guiltkill - таба, видео

Печатать
Просмотров: 66
Guiltkill

song by:typecast

tabbed by: rey ian cabanganan 

mga chong...ganda tong song na to,,kya kinapa ko..eto na yung closest 
na pagkapa ko..pero some parts dko gaano sure,,pagandahin nyo nlng,,
dropped d.

intro
guitar 1
E|-------9------|
B|-----7--------|
G|---9----------|
D|--------------|paulit ulit lng to,,
A|--------------|
D|--------------|     

guitar 2
E|------------------------------------------------|
B|------------------------------------------------|play this kasabay nung 
G|-----6------6/9--11--7--11--6-------6-----------|
D|-0~------4----------------------0~-----4---2/7--|
A|-0~-----------------------------0~--------------|
D|-0~-----------------------------0~--------------|

eto sunod...

guitar 1
E|------------------------------------------------------------------------|
B|------9-------9-------9-------9------9-------9---------------10------10-|
G|----9---9---9---9---9---9---9---9--9---9---9---9---------9------9-------|
D|--7-------7-------7-------7------6-------6-------6-----7---7------7-----|
A|-----------------------------------------------------9------------------|
D|------------------------------------------------------------------------|
 
E|--------------------------------|
B|-----10-----10---------10-------|
G|--9-------------9---------9-----|repeat.
D|-------------------7---------7--|
A|--------8-----------------------|
D|--------------------------------|

verse
E|---------------------------------------------------------------|
B|---------------------------------------------------------------|
G|-----9-------9-------9--------9------9------9------9------9----|
D|-------9-------9-------9--------9------9------9------9-----9---|
A|---7--------7-------7-------7------6------6------6------6------|
D|---------------------------------------------------------------|
    close your eyes and count to ten,,,
E|---------------------------------------------------------------|
B|--------9--10--9--10---10--------------------------------------|
G|------9----9---9--9-------9------------------------------------|
D|----7------7---7--7---------7----------------------------------|
A|--9--------9---9--9-----------8--------------------------------|
D|---------------------------------------------------------------|
,,,times........i will let you down...


 strum na...kyo na bhala umintindi dito..
E|-----------------------------------------------------------|
B|--999999---------------------------------99999--10-9--10---|may konting plucking dito..
G|--999999---------------------------------99999--9--9--9----|
D|--777777---------------7777--------------77777--7--7--7----|
A|-----------------------7777---------------------9--9--9----|
D|-----------------------6666--------------------------------|
..just dont talk to me,, i said that i was sorry i'm not the one you want


chorus: both guitars
E|-------------------------------------------------------------------------|
B|-------------------------------------------------------------------------|
G|-------------------------------------------------------------------------|
D|---777777----77777---------00000-----444444--222222--------0000000-------|
A|---777777----77777---------00000-----444444--222222--------0000000-------|
D|---777777----66666---------00000-----444444--222222--------0000000-------|
.....can't you see im dying now? ......let me be the failure i've become

next to..
dito sa part na to ako hindi sure,,,hehe la kc ako metal zone,,
guitar 2
E|----------------------------------|
B|----------------------------------|
G|----------------------------------|
D|---99--9999------55--5555---------|
A|---99--9999------55--5555---------|
D|---99--9999------55--5555---------|
...mejo lagyan ng onting palm mute..

guitar 1
E|-------------------|
B|-------------------|
G|-------------------|kasabay nito ung 
D|---9/8/9---6/5/6---|
A|---x/x/x---x/x/x---|
D|---7/6/7---4/3/4---|
 
E|--------------------------|
B|--------------------------|
G|---99--9-99-----6--6-66---|
D|---xx--x-xx-----x--x-xx---|
A|---77--7-77-----4--4-44---|
D|--------------------------|
tapos intro uli..
tapos chorus uli...

eto sunod...bridge?..bsta may part na ganito.
ung guitar 2 chorus lang,,,eto gagawin ng guitar 1
E|------------------------------------------------------------------|
B|------------------------------------------------------------------|
G|--9---6/7/6/7/6/7--9-------9--6/7/6/7/6/7----14--6/7/6/7/6/7/6----|
D|--x---x/x/x/x/x/x--x-------x--x/x/x/x/x/x-----x--x/x/x/x/x/x/x----|
A|--7---4/5/4/5/4/5--7-------7--4/5/4/5/4/5----12--4/5/4/5/4/5/7----|
D|------------------------------------------------------------------|
    lagyan nlng po ng slide sa pag strum..

yan! intro uli....may part na hindi ko nilagay kc hindi ko
pa gaano sure,,next time nlng uli..heheh,,,pakiintindi nalang po..
at pakinggan ng maayos yung kanta para mas mapaganda nyo..at paki rate...
astig typecast!
hi mahal ko!



Добавлено: 08.07.2013
Другие материалы по этой песне:
  • Аккорды и текст

Страница создана 08.07.2013
http://primanota.ru/typecast/guiltkill-chords.htm
Привет, Гость.
Предлагаем пройти революционный курс по гитаре.
Подарок от PrimaNota.Ru, забирай!