PrimaNota.ru - самый крупный в мире бесплатный архив песенных текстов, аккордов, табулатур и нот


Typecast - Escae The Hurt - таба, видео

Регистрация Запомнить меня
Войти через:  Facebook Google Twitter Vk Yandex Mail.ru

Typecast - Escae The Hurt - таба, видео

Печатать
Просмотров: 87
Song:Escape the hurt
Band:typecast
tabbed by: GIAN SILVA.... hehehe


standard lang to....hmmm........... mamatay na cguro ung magnanakaw nito noh.......

intro:
E--------------------------------------------------------|
B--------------------------------------------------------|
G--------------------------------------------------------|
D---5-5----4-4----9-9----7-7-----------------------------|
A---x-x----x-x----x-x----x-x-----------------------------|
E---3-3----2-2----7-7----5-5-----------------------------|

BHALA na kau sa plucking........

e2 ung chords:

CM7 - D9/B - Emsus - D9

tapos e2 ung nakakalungot ka meldoy....huhuhu......=(

Cguro d k naman tanga para di mu m-gets ung strumming pattern noh....
tntamad aqng lagay eh......figure it out for urselves


E----------------------------------------------|
B----------------------------------------------|
G-------------------7--------------------------|
D---9--------7------7----5-7x---4-5x-----------| 2x to ah
A---10-7x----5-x3---5----7------5--------------|
E---8--------7---------------------------------|


HEHEH.... ung adlib....hope its ryt........rate it na lang..sound lyk eh. (^^,)
E----------------------------------------------------------------------|
B----------------------------------------------------------------------|
G------------4----------0----------------------------------------------|
D----------5---5------4---4----------7-9-7-----------------------------|
A----3------------5----------7---7-9-------10-9---7-9-10-12-10-9-------|
E----------------------------------------------------------------10-8--|


E--------------------------------------------------------------------------|
B--------------------------------------------------------------------------|
G---------------------------------(7)~--5-4---4-5-4----7-4-5---------------|
D--------9----9-----------------------------7-------7--------7-5-4---------|
A----------10--------9----9----------------------------------------5--3----|
E---8-------------10---10--------------------------------------------------|

    stay kau sa CM7 pagktpos ng adlib.... tapos pluck knyu ung B7 n chord
E-----------------------------------0-------0-------0------------|
B-----------------------4~------------3-------3-------3----------|
G----5----------------2-----------0-------0-------0--------------|
D----4--------------4------------2-------2-------2---------------|
A----3------------2----------------------------------------------|
E----------------------------------------------------------------|

Sa verse... e2 ung chords.......bahala n kau sa plucking....
tnatamad tlga aq eh .......pakingga nyo na lng ung chords....
100% sure sa chords ko

VErse:

    CM7   D9/B??     Em.sus        D9
E---0---|--0------|--0(2)------|--0-----|
B---0---|--0------|--3---------|--3-----|
G---0---|--2------|--0---------|--2-----|
D---2---|--0------|--2---------|--0-----|
A---3---|--2------|--2---------|--x-----|
E---x---|--x------|--0---------|--x-----|


ulitin nyo to......
E----------------------------------------------|
B----------------------------------------------|
G-------------------7--------------------------|
D---9--------7------7----5-7x---4-5x-----------| 2x to ah
A---10-7x----5-x3---5----7------5--------------|
E---8--------7---------------------------------|

then again the verse
...........................

tapos e2........


 stay kau sa CM7 pagktpos ng adlib.... tapos pluck knyu ung B7 n chord
E-----------------------------------0-------0-------0--------------|
B-----------------------4~------------3-------3-------3------------|
G----5----------------2-----------0-------0-------0----------------|
D----4--------------4------------2-------2-------2-----------------|
A----3------------2------------------------------------------------|
E------------------------------------------------------------------|

CHORUS:

power chords to ah......

E-C E-C E-C


intro again...!
E--------------------------------------------------------|
B--------------------------------------------------------|
G--------------------------------------------------------|
D---5-5----4-4----9-9----7-7-----------------------------|
A---x-x----x-x----x-x----x-x-----------------------------|
E---3-3----2-2----7-7----5-5-----------------------------|

tapos ung adlib..! hehe.....ang kulit ko ba =P
ADLIB
E----------------------------------------------------------------------|
B----------------------------------------------------------------------|
G------------4----------0----------------------------------------------|
D----------5---5------4---4----------7-9-7-----------------------------|
A----3------------5----------7---7-9-------10-9---7-9-10-12-10-9-------|
E----------------------------------------------------------------10-8--|


E-----------------------------------------------------------------------|
B-----------------------------------------------------------------------|
G---------------------------------(7)~--5-4---4-5-4----7-4-5------------|
D--------9----9-----------------------------7-------7--------7-5-4------|
A----------10--------9----9----------------------------------------5--3-|
E---8-------------10---10-----------------------------------------------|

2x ung adlib ah......

E-----------------------------------0-------0-------0-------------|
B-----------------------4~------------3-------3-------3-----------|
G----5----------------2-----------0-------0-------0---------------|
D----4--------------4------------2-------2-------2----------------|
A----3------------2-----------------------------------------------|
E-----------------------------------------------------------------|

e2 ung chords na ipluck mo pag ktpos ng adlib.......

CHORDS:

Ems.sus - CM7 - D9

cHORUS: 2X

E-C E-C E-C

then.......

intro:
E--------------------------------------------------------|
B--------------------------------------------------------|
G--------------------------------------------------------|
D---5-5----4-4----9-9----7-7-----------------------------|
A---x-x----x-x----x-x----x-x-----------------------------|
E---3-3----2-2----7-7----5-5-----------------------------|

sana di kau naguluhan......magulo lang talga aqng mag xplain eh .....! 
rate n lng.......95% yan...!! hehehe.....
Добавлено: 20.08.2013
Другие материалы по этой песне:
  • Аккорды и текст

Страница создана 20.08.2013
http://primanota.ru/typecast/escae-the-hurt-chords.htm
Привет, Гость.
Предлагаем пройти революционный курс по гитаре.
Подарок от PrimaNota.Ru, забирай!