PrimaNota.ru - самый крупный в мире бесплатный архив песенных текстов, аккордов, табулатур и нот


Typecast - Distance Below - таба, видео

Регистрация Запомнить меня
Войти через:  Facebook Google Twitter Vk Yandex Mail.ru

Typecast - Distance Below - таба, видео

Печатать
Просмотров: 92
Уроки эстрадного вокала в Санкт-Петербурге
Distance Below-Typecast
Tab by Vincent (Mang Lando)
manikang_papel@yahoo.com
Cp No. 09274952024
Yan!!!!nilagay koh n jn lht kya koh....mdli lng yan...!kung my mli,txt nyo lang ko.. x_X
standard tuning
intro:
[---------------------------------------------------------|
[---------------------------------------------------------|
[---101010101010-/-12-/-13---101010101010--6-/-6-/-7-/-6--|
[---x-x-x-x-x-x--/-x--/-x----x-x-x-x-x-x---x-/-x-/-x-/-x--|  (2x)
[---8-8-8-8-8-8--/-10-/-11---8-8-8-8-8-8---4-/-4-/-5-/-4--|
[---------------------------------------------------------|

[---------------------------------------------------------|
[---------------------------------------------------------|
[---101010101010-/-12-13---101010101010—6-/-6-/-7-/-6-----|
[---x-x-x-x-x-x--/-x--x----x-x-x-x-x-x--x-/-x-/-x-/-x-----|
[---8-8-8-8-8-8--/-10-11---8-8-8-8-8-8--4-/-4-/-4-/-4-----|
[---------------------------------------------------------|

[---------------------------------------------------------|
[---------------------------------------------------------|
[---101010101010-/-14-/-15---101010101010--6-6-7-6--------|
[---x-x-x-x-x-x--/-x--/-x----x-x-x-x-x-x---x-x-x-x--------|
[---8-8-8-8-8-8--/-12-/-13---8-8-8-8-8-8---4-4-4-4--------|
[---------------------------------------------------------|

Verse:

[---------------------------------------------------------|
[---------------------------------------------------------|
[-------------------------------6-6-6-6-6-7-7-7-8-8-------|
[--9-9999999--------------------x-x-x-x-x-x-x-x-x-x-------|  (2x)
[--7-7777777—44444444-5-5555555-4-4-4-4-4-5-5-5-6-6-------|
[------------22222222-3-3333333---------------------------|
Chorus:
[---------------------------------------------------------|
[---------------------------------------------------------|
[------------------------------6-6-6-6-6-6-6-6-6-6--------|
[--999999-666666-444444-555555-x-x-x-x-x-x-x-x-x-x--------|  (2x)
[--777777-444444-222222-555555-4-4-4-4-4-5-5-5-6-6--------|
[---------------------------------------------------------|
(repeat intro)uLitiN nYo LaNg uNg 3rd & 4th part!!
(repeat verse)
(repeat chorus)

Bridge:

[---------------------------------------------------------|
[---------------------------------------------------------|
[---101010101010-/-12-/-13---101010101010--6-/-6-/-7-/-6--|
[---x-x-x-x-x-x--/-x--/-x----x-x-x-x-x-x---x-/-x-/-x-/-x--|  (2x)
[---8-8-8-8-8-8--/-10-/-11---8-8-8-8-8-8---4-/-4-/-5-/-4--|
[---------------------------------------------------------|

[---------------------------------------------------------|
[---------------------------------------------------------|
[---9-9-9-9-9-9-/-12-/-13---9-9-9-9-9-9-6-/-6-/-7-/-6-----|
[---x-x-x-x-x-x-/-x--/-x----x-x-x-x-x-x-x-/-x-/-x-/-x-----| (2x)
[---8-8-8-8-8-8-/-10-/-11---8-8-8-8-8-8-4-/-4-/-5-/-4-----|
[---------------------------------------------------------|

[----------------------------------------------------------|
[----------------------------------------------------------|
[---1010-/-12-12-/-14-14-/-15-15-/-14-14-/-12-12-/-10-10---|
[---x-x--/-x--x--/-x--x--/-x--x--/-x--x--/-x--x--/-x--x----|
[---8-8--/-10-10-/-12-12-/-13-13-/-12-12-/-10-10-/-8--8----|
[----------------------------------------------------------|

                 -----------------------------------------|
                 -----------------------------------------|
                 -8-/-6~----------6-----------------------|
                 -x-/-x~----------x-----------------------|
                 -6-/-4~----------4-----------------------|
                 -----------------------------------------|

..ok b????bzta txt neu nlang akoh pag my mLi...!!!!!
O_o
Добавлено: 24.10.2013
Другие материалы по этой песне:
  • Аккорды и текст

Страница создана 24.10.2013
http://primanota.ru/typecast/distance-below-chords.htm
Привет, Гость.
Предлагаем пройти революционный курс по гитаре.
Подарок от PrimaNota.Ru, забирай!