PrimaNota.ru - самый крупный в мире бесплатный архив песенных текстов, аккордов, табулатур и нот


Typecast - Conflict - таба, бас-таба, видео

Регистрация Запомнить меня
Войти через:  Facebook Google Twitter Vk Yandex Mail.ru

Typecast - Conflict - таба, бас-таба, видео

Печатать
Просмотров: 80
Song: Conflict
Artist: Typecast
Tabbed by: Sungao & Iggy (hayup!)

sungao_punk@yahoo.com	09183140928
nigel.gabat@yahoo.com 09266714456/09227326323--> for girls lang po

                "pucha me mga kulang pa ata un gawa ko eh..
		 yaan mu n.. wula namang bayad un pagpost d2..
		 tae tlga.. tsktsktsk.."

Tuning: Drop D [D - A - D - G - B - E]

Verse

Both Guitars
|-------------------------------|
|------0-0------0-----0---------|
|------0-0------0-----0---------|
|--6-------6-6-----6------------| X2
|--6-------6-6-----6------------|
|--6-------6-6-----6------------|

Guitar1 Lead
|-------------7-------9---11--9-7b------|
|--------11-----------------------------|
|--8-h-9----9---8-h-9---9---9-----------|
|---------------------------------------|
|---------------------------------------|
|---------------------------------------|

|------------7------9--11--6-h-7-----------|
|--------11----------------------6-9-------|
|--8-h-9----9--8-h-9--9---9----------------|
|------------------------------------------|
|------------------------------------------|
|------------------------------------------|

Guitar2 Lead
|--------------7--------9---11--9---7--------|
|--7-h-9-7-h-9----7-h-9----7---7---7---------|
|--------------------------------------------|
|--------------------------------------------|
|--------------------------------------------|
|--------------------------------------------|

|-------------7--------9----11-9-h-11-9-p-7-------------|
|--7-h-9-7-h-9---7-h-9----7-----------------------------|
|-------------------------------------------------------|
|-------------------------------------------------------|
|-------------------------------------------------------|
|-------------------------------------------------------|

Both Guitars
|---------------------------|
|------0-0------0-----0-----|
|------0-0------0-----0-----|
|--6-------6-6-----6--------| X2
|--6-------6-6-----6--------|
|--6-------6-6-----6--------|

Guitar1
|-----------------------|
|-----------------------|
|-11----13-----8-----9--|
|--x-----x-----x-----x--|
|--9--\-11--/--6--\--7--|
|-----------------------|

|-------------------------|
|--11----12------7-----9--|
|---x-----x------x-----x--|
|---8---\-9---/--4--\--6--|
|-------------------------|
|-------------------------|

Chorus

Both Guitars
|-------------------------------------|
|-------------------------------------|
|-------------------------------------|
|--4---6-6-4---6--4---6-6-4---6-2-2---|
|--4---6-6-4---6--4---6-6-4---6-2-2---|
|--4-h-6-6-4-h-6--4-h-6-6-4-h-6-2-2---|

|-------------------------------------|
|-------------------------------------|
|-------------------------------------|
|--4---6-6-4---6--4---6-6-4---6-9-9---|
|--4---6-6-4---6--4---6-6-4---6-9-9---|
|--4-h-6-6-4-h-6--4-h-6-6-4-h-6-9-9---|

|-----------------------------------|
|-----------------------------------|
|-----------------------------------|
|--2-2-2-2-2-2-2-2-2-2-2------------|
|--2-2-2-2-2-2-2-2-2-2-2------------|
|--2-2-2-2-2-2-2-2-2-2-2------------|
	PM

Guitar1
|-------------------------------------|
|-------------------------------------|
|-------------------------------------|
|--4---6-6-4---6--4---6-6-4---6-2-2---|
|--4---6-6-4---6--4---6-6-4---6-2-2---|
|--4-h-6-6-4-h-6--4-h-6-6-4-h-6-2-2---|

|-------------------------------------|
|-------------------------------------|
|-------------------------------------|
|--4---6-6-4---6--4---6-6-4---6-9-9---|
|--4---6-6-4---6--4---6-6-4---6-9-9---|
|--4-h-6-6-4-h-6--4-h-6-6-4-h-6-9-9---|

|-------------------|
|-------------------|
|--8---9---11---13--|
|--x---x----x----x--|
|--6---7----9---11--|
|-------------------|
	PM

Guitar2
|-------------------------------------|
|-------------------------------------|
|-------------------------------------|
|--4----6-6-4--6--4---6-6-4---6-2-2---|
|--4----6-6-4--6--4---6-6-4---6-2-2---|
|--4-h-6-6-4-h-6--4-h-6-6-4-h-6-2-2---|

|-------------------------------------|
|-------------------------------------|
|-------------------------------------|
|--4---6-6-4---6--4---6-6-4---6-9-9---|
|--4---6-6-4---6--4---6-6-4---6-9-9---|
|--4-h-6-6-4-h-6--4-h-6-6-4-h-6-9-9---|

|----------------------|
|---7---9----11---13---|
|---x---x-----x----x---|
|---4---6-----8----9---|
|----------------------|
|----------------------|

Interlude

Both Guitars
|--------------------|
|--------------------|
|--------------------|
|---4---6-4-9-4-6----|
|---4---6-4-9-4-6----|
|---4-h-6-4-9-4-6----|

Guitar2
|-----------------------|
|--------------7-p-4----|
|---6-p-4---------------|
|-----------6-----------|
|-----------------------|
|-----------------------|

Both Guitars
|-------------------|
|-------------------|
|-------------------|
|---4---6-4-9-4-6---|
|---4---6-4-9-4-6---|
|---4-h-6-4-9-4-6---|

Guitar2
|----------------------|
|----------------------|
|----------------------|
|---9--9--9------------|
|---9--9--9------------|
|---9--9--9------------|

Both Guitars
|----------------------|
|----------------------|
|----------------------|
|--2-2-2-2-2-2-2-2-2---|
|--2-2-2-2-2-2-2-2-2---|
|--2-2-2-2-2-2-2-2-2---|
	PM

Repeat Verse
Repeat Chorus

Bridge Part1

Guitar1
|----------------------|
|----------------------|
|----------------------|
|--6----6----6----6----|
|--6----6----6----6----|
|--6----6----6----6----|

|------------------------------------------------------|
|------------------------------------------------------|
|-------------------------------------------11-p-9-----|
|--6-9-/-8---6-9-/-8----6-9-/-8--11-p-8----------------|
|--6-------9-6-------9--6-------9---------9------------|
|--6---------6----------6------------------------------|

Guitar2
|----------------------------------------------|
|--11-h-12-11-h-12-11-h-12-11-h-12-11-h-12-----|
|----------------------------------------------|
|----------------------------------------------|
|----------------------------------------------|
|----------------------------------------------|

Bridge Part2

Guitar1
|----------------------|
|----------------------|
|----------------------|
|---4------6------2----|
|---4------6------2----| X4
|---4------6------2----|

Guitar2 Lead
|--------------------|
|--------------------|
|---4--3-------------|
|---------4---6------|
|--------------------|
|--------------------|

Bridge Part 3

Guitar1
|-------------------------------------|
|-------------------------------------|
|-------------------------------------|
|--4---6-6-4---6--4---6-6-4---6-2-2---|  X4
|--4---6-6-4---6--4---6-6-4---6-2-2---|
|--4-h-6-6-4-h-6--4-h-6-6-4-h-6-2-2---|

Last Chorus

Both Guitars
|-------------------------------------|
|-------------------------------------|
|-------------------------------------|
|--4---6-6-4---6--4---6-6-4---6-2-2---|  X4
|--4---6-6-4---6--4---6-6-4---6-2-2---|
|--4-h-6-6-4-h-6--4-h-6-6-4-h-6-2-2---|

Ending

Both Guitars
|-----------------------------------------|
|-------------------------------------7---|
|------------------8----------------------|
|----9-8-9-8-9-8-9-------9-8-9-8-9-8-9----|
|--6-6-6-6-6-6-6-6---6-6-6-6-6-6-6-6-6----|
|--6-6-6-6-6-6-6-6---6-6-6-6-6-6-6-6-6----|

|------------------------------|
|------------------------------|
|------------------8-----------|
|----9-8-9-8-9-8-9-----9-8-9---|
|--6-6-6-6-6-6-6-6---6-6-6-6---|
|--6-6-6-6-6-6-6-6---6-6-6-6---|

|------------------------------------|
|------------------------------------|
|------------------------------------|
|---4------6------2-----1----1-1-1---|
|---4------6------2-----1----1-1-1---|
|---4------6------2-----1----1-1-1---|

		"mahal na mahal kita vj iya di mo lang alam.."
                "mahal kita ehra madrigal kung alam mo lang.."

sungao_punk@yahoo.com	09183140928
nigel.gabat@yahoo.com 09266714456/09227326323--> for girls lang po
Добавлено: 24.08.2013
Другие материалы по этой песне:
  • Аккорды и текст

Страница создана 24.08.2013
http://primanota.ru/typecast/conflict-chords.htm
Привет, Гость.
Предлагаем пройти революционный курс по гитаре.
Подарок от PrimaNota.Ru, забирай!