PrimaNota.ru - самый крупный в мире бесплатный архив песенных текстов, аккордов, табулатур и нот


Typecast - Can It Try My Luck On You - таба, видео

Регистрация Запомнить меня
Войти через:  Facebook Google Twitter Vk Yandex Mail.ru

Typecast - Can It Try My Luck On You - таба, видео

Печатать
Просмотров: 83
Уроки эстрадного вокала в Санкт-Петербурге
can it try my luck on you - typecast


intro:


E|---------------------------|
B|-----2-2-----2-2-----2-----|  
G|------0-------0-----0------|   2x
D|---------------------------|
A|----------0-------2-----3--|
D|--5------------------------|



E|----------------------|
B|----------------------|
G|----------------------|  2x
D|--44--77--55--44--77--|
A|--22--55--55--44--77--|
D|----------55--44--77--|


(d ako sure sa part na toh)


E|----------------------------|
B|-----------------------5----|
G|------7--------7-----7---7--|
D|----7---7----7---7-5--------|
A|--5--------5----------------|
D|----------------------------|



verse 1:


ive waited long enough for you..


E|--------------------------|
B|--------------------------|  
G|--4444444444444-----------|   2x
D|--xxxxxxxxxxxxx--5-4/777--|
A|--2222222222222--5-4/777--|
D|-----------------5-4/777--|


saving the message you sent to me..


(kayo nalang bahala kung ilan sa 024000)


E|--------------------------|
B|--------------------------|
G|--------------------------|   2x
D|--4444444444444--5-4/777--|
A|--2222222222222--5-4/777--|
D|-----------------5-4/777--|

    .............


did you ever crossed ur mind..


E|----------------------------|
B|----------------------------|
G|----------------------------|   2x
D|--2--4-5--5-4----2--4-5--7--|
A|--2--4-5------5--2--4-5--7--|
D|--2--4-5---------2--4-5--7--|



chorus:


guitar 1:


E|----------------|
B|----------------|  
G|----------------|   4x
D|--7--7--4--5/7--|
A|--5--4--2--5/7--|
D|-----------5/7--|


guitar 2:


(d ako sure sa part na to kung tama, timing nalang)

E|---------------------------------------------------------------------|
B|----55-------5-6-5------5/7-5------5/7-5-----5/7-5-----5/7-5---------|
G|-------5----5------5----------5----------5---------5---------5--5----|
D|--5------5------------5----------5---------5---------5------------5--|
A|---------------------------------------------------------------------|
D|---------------------------------------------------------------------|


E|----------------|
B|---5---5-6-5----| 
G|--5-5--------5--|
D|----------------|
A|----------------|
D|----------------|


before verse 2:


E|----------------------|
B|----------------------|
G|----------------------|  2x
D|--44--77--55--44--77--|
A|--22--55--55--44--77--|
D|----------55--44--77--|



verse 2:


E|--------------|
B|--------------|  
G|--4~----------|   2x
D|--x--5-4/777--|
A|--2~-5-4/777--|
D|-----5-4/777--|



E|--------------------------|
B|--------------------------|
G|--------------------------|   2x
D|--4444444444444--5-4/777--|
A|--2222222222222--5-4/777--|
D|-----------------5-4/777--|

    .............


did you ever crossed your mind..


E|----------------------------|
B|----------------------------|
G|----------------------------|   2x
D|--2--4-5--5-4----2--4-5--7--|
A|--2--4-5------5--2--4-5--7--|
D|--2--4-5---------2--4-5--7--|



chorus:


guitar 1:


E|----------------|
B|----------------|  
G|----------------|   4x
D|--7--7--4--5/7--|
A|--5--4--2--5/7--|
D|-----------5/7--|



(basta kayo nalang bahala sa part na toh kasi iba ung pattern dito)



outro:


E|----------------------|
B|----------------------|
G|----------------------|  
D|--44--77--55--44--77--|
A|--22--55--55--44--77--|
D|----------55--44--77--|



guitar 2:


E|-----x-x----x-x----x-x---------|
B|-----x-x----x-x----x-x---------|
G|--77-x-x-77-x-x-77-x-x--77-99--|  2x
D|--xx-x-x-xx-x-x-xx-x-x--xx-xx--|
A|--55-x-x-55-x-x-55-x-x--55-77--|
D|-----x-x----x-x----x-x---------|


E|-----x-x----x-x----x-x---------|
B|-----x-x----x-x----x-x---------|
G|--77-x-x-77-x-x-77-x-x--77-66--| 
D|--xx-x-x-xx-x-x-xx-x-x--xx-xx--|
A|--55-x-x-55-x-x-55-x-x--55-44--|
D|-----x-x----x-x----x-x---------|


E|-----x-x----x-x----x-x------------|
B|-----x-x----x-x----x-x------------|
G|--77-x-x-77-x-x-77-x-x--77-99-11--| 
D|--xx-x-x-xx-x-x-xx-x-x--xx-xx-x---|
A|--55-x-x-55-x-x-55-x-x--55-77-9---|
D|-----x-x----x-x----x-x------------|



kung my mali sa tab na ginawa ko email nyo lang saken.. what_is_a@yahoo.com.. thanks! ^_^
Добавлено: 06.06.2013
Другие материалы по этой песне:
  • Аккорды и текст

Страница создана 06.06.2013
http://primanota.ru/typecast/can-it-try-my-luck-on-you-chords.htm
Привет, Гость.
Предлагаем пройти революционный курс по гитаре.
Подарок от PrimaNota.Ru, забирай!