PrimaNota.ru - самый крупный в мире бесплатный архив песенных текстов, аккордов, табулатур и нот


Typecast - Better - таба, видео

Регистрация Запомнить меня
Войти через:  Facebook Google Twitter Vk Yandex Mail.ru

Typecast - Better - таба, видео

Печатать
Просмотров: 51
better
by typecast

tabbed by>>andres castillo (OLPSian?!?!)

PARA KAY DD!!!HAHAHA
intro(x2)

e-------------|
a-------------|
d--7-----6----|
g--7(x10)7(x2)    x3
b--5-----5----|
e-------------|

tapos

-------------------|
-------------------|
---7-9-11-12-11-9--|
---x-x-x--x--x--x--|
---5-7-9--10-9--7--|
-------------------|

leave him...

------------------|
------------------|
---7--------------|
---7---4---9---5--|  (x2)
---5---4---9---5--|
-------2---7---3--|
               *
yeah im saying it from the heart...

--------------------|
--------------------|
--------------------|
---4---9---5---7-5--|   (x2)
---4---9---5---7-5--|
---2---7---3---5-3--|
   *   *   *   * *

look around do you see him...

------------------|
------------------|
---7--------------|
---7---4---9---5--|   (x2)
---5---4---9---5--|
-------2---7---3--|
               *

his the guy who loves to fuck around...

----------------------|
----------------------|
----------------------|
---4---9---5---7-5----|
---4---9---5---7-5----|
---2---7---3---5-3----|
   *   *   *   * *

----------------------|
----------------------|
----------------------|
---4---9---5---7---5--|
---4---9---5---7---5--|
---2---7---3---5---3--|
   *   *   *


outro

--------------------------|
--------------------------|
---7----7/9----11\7--7\4--|
---x----x-x----x--x--x\x--|
---5----5/7-----9\5--5\2--|
--------------------------|

--------------------------|
--------------------------|
--------------------------|
---4---9------4--9--5--7--|
---4---9------4--9--5--7--|
---2---7------2--7--3--5--|
   *   *      *  *

tapos may PICKSLIDe!!!

tapos...balik sa INTRO
tapos...

tapos na!!!

******NOTA: ung sa dorothy nga pla....pki taas ng isang fret lahat ng nakalagay dun kc 
ung tono ng gitara ko nun e...sensya....


kung madaming mali sa tabs na to paki intindi n lng po....tska....murahin niu lang ako 
madaming mali a...eto ym ko o(an_drew28@yahoo.com)
Добавлено: 03.02.2014
Другие материалы по этой песне:
  • Аккорды и текст

Страница создана 03.02.2014
http://primanota.ru/typecast/better-chords.htm
Привет, Гость.
Предлагаем пройти революционный курс по гитаре.
Подарок от PrimaNota.Ru, забирай!