PrimaNota.ru - самый крупный в мире бесплатный архив песенных текстов, аккордов, табулатур и нот


Typecast - Another Minute Until Ten - таба, бас-таба, драм-таба, видео

Регистрация Запомнить меня
Войти через:  Facebook Google Twitter Vk Yandex Mail.ru

Typecast - Another Minute Until Ten - таба, бас-таба, драм-таба, видео

Печатать
Просмотров: 64
another minute until ten-typecast

drop D

intro:

|-------5-------------5---------------------|
|---8------8------7h8---8-7-----------------|
|-----7------7--7---------------------------|
|-------------------------------------------|   2x to..
|-7-----------------------------------------|
|-------------------------------------------|

then

|-------5-------------5---------------------|
|---8------8------7h8---8-7-----------------|
|-----7------7--7---------------------------|   2x din to..
|-7-----------------------------------------|
|-------------------------------------------|
|-------------------------------------------|

guitar 2:

|-10------10------12-------10-------|
|----12------12------12-------12----|
|-------11------12------12-------11-|
|-----------------------------------|
|-----------------------------------|
|-----------------------------------|

repeat all

2nd part ng intro:

|------------------------------------------------------------|
|----------3-3-----------------------------------------------|
|----------------4-4-----0-0-----2---------4-----------------|
|-5-4-2--2-----2-----0h2-------0-------5-5---5-4-4/5-5-5-5---|
|-5-4-2--2-------------------2-----2-2-----------------------|
|-5-4-2--2---------------------------------------------------|

then:

|-------2-2------|                           
|-------3-3------|   <----(basic chords D)   
|-------2-2------|
|-2x-2x----------|
|-2x-2x----------|
|-2x-2x----------|

tapos biglang:
e|---[5]------|

then:

|------2-2------2-2--2-2-2h3---------|                          
|------3-3------3-3--3-3-3-----------| 
|------2-2------2-2--2-2-2-----------|
|-2x-2x----2x-2x---------------------|
|-2x-2x----2x-2x---------------------|
|-2x-2x----2x-2x---------------------|
play this several x..

verse 1:

|-----------------------------|
|----------------------3-3----|
|-5-2--4-5-7-5-4-0---0--------|
|-5-2--------------2----------|
|-3-0-------------------------|
|-----------------------------|

chorus:

|-------|
|-------|
|-2-5---|
|-2-5---|
|-0-3---|
|-------|

tapos may ganito..

|------2-2------|                           
|------3-3------|     
|------2-2------|
|-2x-2x---------|
|-2x-2x---------|
|-2x-2x---------|

 2x lhat un..

tapos ito nmn..

|------------------------------------------------------------|
|----------3-3-----------------------------------------------|
|----------------4-4-----0-0-----2---------4-----------------|
|-5-4-2--2-----2-----0h2-------0-------5-5---5-4-4/5-5-5-5---|
|-5-4-2--2-------------------2-----2-2-----------------------|
|-5-4-2--2---------------------------------------------------|

tapos ito ulit..

|------2-2------|                           
|------3-3------|   
|------2-2------|
|-2x-2x---------|
|-2x-2x---------|
|-2x-2x---------|

e|---[5]-----|

|-------2-2-----2-2--2-2-2h3---------|                          
|-------3-3-----3-3--3-3-3-----------| 
|-------2-2-----2-2--2-2-2-----------|
|-2x-2x----2x-2x---------------------|
|-2x-2x----2x-2x---------------------|
|-2x-2x----2x-2x---------------------|
                      
verse 2:

|-----------------------------|
|----------------------3-3----|
|-5-2--4-5-7-5-4-0---0--------|
|-5-2--------------2----------|
|-3-0-------------------------|
|-----------------------------|

tapos chorus ulit:

|-------|
|-------|
|-2-5---|
|-2-5---|
|-0-3---|
|-------|

na may ganito dn.. :D

|------2-2------|                           
|------3-3------|     
|------2-2------|
|-2x-2x---------|
|-2x-2x---------|
|-2x-2x---------|

outro:

|-------5-------------5---------------------|
|---8------8------7h8---8-7-----------------|
|-----7------7--7---------------------------|
|-------------------------------------------|    2x 
|-7-----------------------------------------|
|-------------------------------------------|

|-------5-------------5---------------------|
|---8------8------7h8---8-7-----------------|
|-----7------7--7---------------------------|    2x
|-7-----------------------------------------|
|-------------------------------------------|
|-------------------------------------------|

guitar 2:

|-10------10------12-------10-------|
|----12------12------12-------12----|
|-------11------12------12-------11-|
|-----------------------------------|
|-----------------------------------|
|-----------------------------------|

tpos nung meron nang drums...
|-------------------9*--|
|-----------------------|
|-5-7-------------------|
|-5-7-------------------|
|-3-5-------------------|
|-----------------------|

ito na ulit...

|------------------------------------------------------------|
|----------3-3-----------------------------------------------|
|----------------4-4-----0-0-----2---------4-----------------|
|-5-4-2--2-----2-----0h2-------0-------5-5---5-4-4/5-5-5-5---|
|-5-4-2--2-------------------2-----2-2-----------------------|
|-5-4-2--2---------------------------------------------------|

tpos..

end with:

|--------------------|
|--------------------|
|--------------------|
|-5-4-2--2-----------|
|-5-4-2--2-----------|
|-5-4-2--2-----------|


add nyo friendster ko: walalang_00@yahoo.com.ph
Добавлено: 24.09.2013
Другие материалы по этой песне:
  • Аккорды и текст

Страница создана 28.06.2013
http://primanota.ru/typecast/another-minute-until-ten-chords.htm
Привет, Гость.
Предлагаем пройти революционный курс по гитаре.
Подарок от PrimaNota.Ru, забирай!