PrimaNota.ru - самый крупный в мире бесплатный архив песенных текстов, аккордов, табулатур и нот


Typecast - 21 And Counting - текст песни, таба, видео

Регистрация Запомнить меня
Войти через:  Facebook Google Twitter Vk Yandex Mail.ru

Typecast - 21 And Counting - текст песни, таба, видео

Печатать
Просмотров: 86
Typecast
21 And Counting
The Infatuation Is Always There
2004
Submitted by: paramore_fans@yahoo.com

Key: E

Tuning: Standard EADGBe

Chords used:
C#m - x46654
A -   x02220
E -   022100
B -   x24442
F#m - 244222


Intro:

Part 1: Silent
      C#m          A        C#m           A
e|------------|-----0---|--------2-|-----0-------
B|-5-4-0--0h2-|-2-0---0-|-5-4-0----|-2-0---0-0h2-
G|-6----------|-2-------|-6--------|-2-----------
D|-6----------|-2-------|-6--------|-2-----------
A|-4----------|-0-------|-4--------|-0-----------
E|------------|---------|----------|-------------


Part 2: Distortion, x2
               C#m                                 A
e|--------------------------------|----------------------------------
B|----------5-5-5---------4-4-4-4-|------------5-5-5---------4-4-4-4-
G|-6-6-6-6--------4-4-4-4---------|-2-2-2-2-2--------4-4-4-4---------
D|-6-6-6-6------------------------|-2-2-2-2-2------------------------
A|-4-4-4-4------------------------|-0-0-0-0-0------------------------
E|--------------------------------|----------------------------------

               C#m                  A
e|------------------------7-7-7-7-|---
B|----------5-5-5---------5-5-5-5-|---
G|-6-6-6-6--------4-4-4-4---------|-2-
D|-6-6-6-6------------------------|-2-
A|-4-4-4-4------------------------|-0-
E|--------------------------------|---


Verse 1:
C#m    A
  I am waiting 
      C#m
But I find
          A
myself looking
C#m             A
  I'm sick of myself
       C#m
I'm so lonely
             A
I just found out


(Repeat Intro Part 2)


Verse 2:
C#m           A
  Sometimes I can't
              C#m
control these tears
Everything is
A               C#m
falling down on me
          A
I feel so cold
C#m               A
  And it's all my fault


Refrain:
F#m       A
  So this how the
guilt feels
F#m
  It can break you
A
down to pieces 
F#m       A
  So this how the
guilt feels
F#m
  It can break you
A
down


Chorus 1:
          E   B
Break you down
          C#m A E-B-C#m-A
Break you down


(Repeat Intro Part 1)
(Repeat Verse 1 and Verse 2)
(Repeat Refrain)


Chorus 2:
          E   B
Break you down
          C#m A
Break you down
(Repeat)


(Repeat Intro Part 2)
Добавлено: 22.06.2013
Другие материалы по этой песне:
  • Аккорды и текст

Страница создана 24.04.2012
http://primanota.ru/typecast/21-and-counting-chords.htm
Привет, Гость.
Предлагаем пройти революционный курс по гитаре.
Подарок от PrimaNota.Ru, забирай!