PrimaNota.ru - самый крупный в мире бесплатный архив песенных текстов, аккордов, табулатур и нот


Type O Negative - Stay Out Of My Dreams - текст песни, таба, видео

Регистрация Запомнить меня
Войти через:  Facebook Google Twitter Vk Yandex Mail.ru

Type O Negative - Stay Out Of My Dreams - текст песни, таба, видео

Печатать
Просмотров: 205
Type O Negative
The Least Worst of Type O Negative
Stay Out of My Dreams

==========================================================


Intro
B |----------------------------------------------------|
F#|----------------------------------------------------|
D |-----------2/4~-----2/4~-----2/4~-----4-------------|
A |----------------------------------------------------|
E |----------------------------------------------------|
B |--/xx/-5-5------4-4------3-3------2------2-2-3-4-5--|

B |------------------------------------------------------|---|
F#|------------------------------------------------------|---|
D |------2/4~-----2/4~-----2/4~-----/4-------7-6^7^6-----|-9-|
A |----------------------------------------9---------^7--|-9-|
E |--------------------------------------9---------------|-7-|
B |--5-5------4-4------3-3------2------7-----------------|---|


Post-Heavy Intro
B |---------------------------|
F#|--12--12-12-12/10--10/17~--|
D |--9---9--9--9/7------------|
A |---------------------------|
E |---------------------------|
B |---------------------------|

Verse 1
I shan't think of her when I'm awake
However in sleep I can't escape
B |-------------------------|--------------------------|
F#|-17v---------------------|--12--12-12-12/10-10/17v--|
D |-------------------------|--9---9--9--9-/7----------|
A |-------------------------|--------------------------|
E |-------------------------|--------------------------|
B |-------------------------|--------------------------|

A Coney island high - when I get inside
B |--12-12-12-12---------------------|
F#|--12-12-12-12--10-10-10-10-10/17~-|
D |---------------9--9--9--9---------|
A |----------------------------------|
E |----------------------------------|
B |----------------------------------|

All I ask is please stay out of my dreams
B |-------------------------|--5*harmonic---|
F#|-17v---------------------|---------------|
D |-------------------------|---------------|
A |-------------------------|---------------|
E |-------------------------|---------------|
B |-------------------------|---------------|


Post Verse (heavy breathing)
First half 3x then second half 1x
B |----------------------|------------------------------|
F#|----------------------|------------------------------|
D |-------------7--------|------------------------------|
A |--9--9-9-4-4-5-7-7-7--|------------------------------|
E |--7--7-7-2-2---5-5-5--|--0-0-0^5-7-77775505777-5-7~--|
B |----------------------|------------------------------|

Verse 2
Near the streets of Richmond and Hylan
Dwells the princess of Staten Island
B |-----------------------|----------------------|
F#|-----------------------|----------------------|
D |-----------------------|-------------7--------|
A |-------4444------7777--|--9--9-9-4-4-5-7-7-7--|
E |--2222-2222-5555-5555--|--7--7-7-2-2---5-5-5--|
B |--0000------3333-------|----------------------|
   PM*******************

A seven dollar toll - will get me in her hole
(First half 3x then second half 1x)
B |----------------|------------------------------|
F#|----------------|------------------------------|
D |-----------999--|------------------------------|
A |--999--777-777--|------------------------------|
E |--777--555------|--0-0-0^5-7-77775505777-5-7~--|
B |----------------|------------------------------|

All I ask is please stay out of my dreams
B |-----------------------|
F#|-----------------------|
D |-----------------------|
A |-------4444------7777--|
E |--2222-2222-5555-5555--|
B |--0000------3333-------|
   PM*******************


Solo Rhythm
B |------------------------|
F#|------------------------|
D |------------------------|
A |-----11---11/9--99--22--|
E |--/9----9--9/7--66--00--|
B |------------------------|

Post Solo
B |----------------------------------------------------|
F#|----------------------------------------------------|
D |-----------2/4~-----2/4~-----2/4~-----4-------------|
A |----------------------------------------------------|
E |----------------------------------------------------|
B |--/xx/-5-5------4-4------3-3------2------2-2-3-4-5--|

B |------------------------------------------------------|---|
F#|------------------------------------------------------|---|
D |------2/4~-----2/4~-----2/4~-----/4-------7-6^7^6-----|-9-|
A |----------------------------------------9---------^7--|-9-|
E |--------------------------------------9---------------|-7-|
B |--5-5------4-4------3-3------2------7-----------------|---|

B |-------------------|
F#|--12--12-12-12/10--|
D |--9---9--9--9/7----|
A |-------------------|
E |-------------------|
B |-------------------|

First half 3x then second half 1x
B |----------------------|------------------------------|
F#|----------------------|------------------------------|
D |-------------7--------|------------------------------|
A |--9--9-9-4-4-5-7-7-7--|------------------------------|
E |--7--7-7-2-2---5-5-5--|--0-0-0^5-7-77775505777-5-7~--|
B |----------------------|------------------------------|

Verse 3
Though long gone, she won't let me forget
When at night I wake up in her sweat
B |-------------------------|--------------------------|
F#|-17v---------------------|--12--12-12-12/10-10/17v--|
D |-------------------------|--9---9--9--9-/7----------|
A |-------------------------|--------------------------|
E |-------------------------|--------------------------|
B |-------------------------|--------------------------|

A lonely brooklyn troll - a ghost of red hook old
B |----------------|
F#|----------------|
D |-----------999--|
A |--999--777-777--|
E |--777--555------|
B |----------------|


All I ask is please stay out of my dreams
B |-----------------------|------------------------------|
F#|-----------------------|------------------------------|
D |-----------------------|------------------------------|
A |-------4444------7777--|------------------------------|
E |--2222-2222-5555-5555--|--0-0-0^5-7-77775505777-5-7~--|
B |--0000------3333-------|------------------------------|
   PM*******************


B |------------------------|
F#|------------------------|
D |------------------------|
A |-----11---11/9--99--22--|
E |--/9----9--9/7--66--00--|
B |------------------------|

Verse 4
With your straight black hair and emerald green eyes
Hippies pointing "that's pete's sister in disguise"
Maybe you had uttered those words as a jest
I don't mind the allegations of incest

(The first two chords are played multiple times. Listen to the recording and the 
flourish on the end is just what I play)
B |------------------------|
F#|------------------------|
D |------------------------|
A |------------------------|
E |--11--9-------5/4^5-----|
B |--9---7---7-9-------5/--|

B |------------------------|
F#|------------------------|
D |------------------------|
A |-----11---11/9--99--22--|
E |--/9----9--9/7--66--00--|
B |------------------------|


At the time I thought I could love no other
Till I heard you say that I was your brother
In your e-mail said how much we look like twins
How it turned you on just knowing it's a sin
B |---------------|
F#|---------------|
D |----------11---|
A |----------9----|
E |--11--9--------|
B |--9---7--------|

B |------------------------|
F#|------------------------|
D |------------------------|
A |-----11---11/9--99--22--|
E |--/9----9--9/7--66--00--|
B |------------------------|

Stay out of my dreams
I said stay, out of them I said, stay out of my dreams
I said, stay out of my dreams
Stay out of my dreams
I said, stay out of them
I said, stay out of my dreams
I said, stay out of my - dreams
B |--------------------|
F#|--------------------|
D |--------------------|
A |--11--11/9--99--22--|
E |--9---9/-7--66--00--|
B |--------------------|
    PM***************
Добавлено: 13.02.2014
Другие материалы по этой песне:
  • Аккорды и текст

Страница создана 13.04.2012
http://primanota.ru/type-o-negative/stay-out-of-my-dreams-chords.htm
Привет, Гость.
Предлагаем пройти революционный курс по гитаре.
Подарок от PrimaNota.Ru, забирай!