PrimaNota.ru - самый крупный в мире бесплатный архив песенных текстов, аккордов, табулатур и нот


Type O Negative - Pyretta Blaze - аккорды и текст, таба, видео

Регистрация Запомнить меня
Войти через:  Facebook Google Twitter Vk Yandex Mail.ru

Type O Negative - Pyretta Blaze - аккорды и текст, таба, видео

Печатать
Просмотров: 156
Pyretta Blaze
Type O Negative
Type O Negative     
"Pyretta Blaze"

tabbed by jon lent
ozzytypeinsanity@yahoo.com


opening riff:
[this part is slightly off]
E-------------------------------------------
B-------------------------------------------
G-------------------------------------------
D-------------------------4---------4-------
A---------------2-3-4-5-6---6-5-4-2---2h4-2-
E---------2-3-4-----------------------------

E--------------------------------
B--------------------------------
G--------------------------------
D--6---6---6---6---6-------------
A----6---5---4---2---4-----------
E--------------------------------

the verses:
E-------------------------------------------------------------
B-------------------------------------------------------------
G-------------------------------------------------------------
D--4--4--4-4--------------------------------------------------
A--2--2--2-2-X-4--4-4-4-4-------------------------------------
E--------------2--2-2-2----2h4-2--2h4-2--2h4-2--2h4-2--2h4-2--
         
the 'like a...to a flame' part:        
E----------------------------------------------------------------
B----------------------------------------------------------------
G----------------------------------------------------------------
D-3--4-4-4-4-4-4-6--6-6-6-6-6-6-/9--9-9-9-9-9/-1111111111111111\-
A-2--2-2-2-2-2-2-4--4-4-4-4-4-4-/7--7-7-7-7-7/8/9-9-9-9-9-9-9-9\-
E--------------------------------7--7-7-7-7-7/8/9-9-9-9-9-9-9-9\-

the 'all..equally' part:
E-------------------------
B-------------------------
G-------------------------
D-4--4--4-4-4-------------
A-2--2--2-2-2-4--4-4-4-4\-
E-------------2--2-2-2----
 
finally: the chorus: (da da da):
E----------------------------------------------------------------
B----------------------------------------------------------------
G-8-8-8-x-x-x-x-x-10-10-10-x-x-x-x-x-6-6-6-x-x-x-x-x-------------
D-8-8-8-x-x-x-x-x-10-10-10-x-x-x-x-x-6-6-6-x-x-x-x-x----5/6-8--8-
A-6-6-6-x-x-x-x-x--8--8--8-x-x-x-x-x-4-4-4-x-x-x-x-x-6-8-----6--6
E----------------------------------------------------------------
 
E----------------------------------------------------
B----------------------------------------------------
G-10-10-10-x-x-x-x-x-6-6-6-x-x-x-x-x-8-8-8-x-x-x-x-x-
D-10-10-10-x-x-x-x-x-6-6-6-x-x-x-x-x-8-8-8-x-x-x-x-x-
A--8--8--8-x-x-x-x-x-4-4-4-x-x-x-x-x-6-6-6-x-x-x-x-x-
E---------------------------------------------------

E-----------------
B-----------------
G------------------
D-13-13-13-11-11-13
A------------------
E------------------

solo part-you're on your own. most anything sounds
good. copying 
solos note for note just sound bad...

dum dum dum that's basically it...enjoy.
ozzytypeinsanity@yahoo.com

by the way, tabbing's a bitch. if the chords are
wrong, since i'm
a bass player, please feel free to e-mail me. thanks.
     
Добавлено: 30.09.2013
Другие материалы по этой песне:
  • Аккорды и текст

Страница создана 03.04.2012
http://primanota.ru/type-o-negative/pyretta-blaze-chords.htm
Привет, Гость.
Предлагаем пройти революционный курс по гитаре.
Подарок от PrimaNota.Ru, забирай!