PrimaNota.ru - самый крупный в мире бесплатный архив песенных текстов, аккордов, табулатур и нот


Type O Negative - Profit Of Doom - текст песни, таба, бас-таба, видео

Регистрация Запомнить меня
Войти через:  Facebook Google Twitter Vk Yandex Mail.ru

Type O Negative - Profit Of Doom - текст песни, таба, бас-таба, видео

Печатать
Просмотров: 199
"Profits of Doom"
From DEAD AGAIN by Type O Negative
Tab by Raza Mahmood
Tune guitar 2.5 steps below standard
Low to high: B,E,A,D,F#,b

NOTES:  += bend note    X\= pick slide

I.  INTRO (repeat 4 times):

b ||---------------------------------------------|
F#||---------------------------------------------|
D ||---------------------15--/21-\15-------------|
A ||------------------14-------------14----------|
E ||---------------13-------------------13-------|
B ||-\-0--/6--/12--------------------------12\-6-|

                                  pick scrape
|-------------------------------||------||
|-------------------------------||------||
|----11--11-------7---7---7-----||------||
|-----9---9-------5---5---5---\-||------||
|-7---7---7-------3---3---3---\-||-X\---||
|-0-----------------------------||-X\---||


VERSE INTRO:  
                                  "Goodbye cruel world!"
||-------------------------------------------------------|
||-------------------------------------------------------|
||-------------------------------------------4^5^4^5^4^5-|
||---------5-------------------------5-------------------|
||--0---/6---6---5+-(5)-3^5^3-0---/6---6---5-------------|
||-------------------------------------------------------|

                            "whooooaaaaa!"
                        pm
|-------------------------------------------------||
|-------------------------------------------------||
|-------------------------------------------------||
|---------5------------------8--8--8--8--8--8--8--||
|-0---/6---6---5+-(5)-3--0---6--6--6--6--6--6--6--||
|------------------------0------------------------||


VERSE:  
"Of this shape..."
"Against the sun..."
"Of ten paws..."
"On your head..."
||------------------------------------------------------------||
||------------------------------------------------------------||
||-----------------------------------101010-9--9---9---9--8-7-||
||--7-----------------------------X\--8-8-8-7--7--------------||
||----7--0--6+-(6)--6^7^6^7^6^7---X\--6-6-6-5--5---7---7--6-5-||
||-------------------------------------------------8---8--7-6-||

Repeat VERSE INTRO

Repeat VERSE

II. Second Part

a) Intro/CHORUS:

||------------------------------------------------------||
||------------------------------------------------------||
||----4-----2-4-------4--2-4-----4---2-4-------4----2-4-||
||---------------0-0---0--------------------------------||
||-2-----2--------------------0----0--------------------||
||----------------------------------------3-3-----3-----||

b)  Verse:

"April 2029... 
"The End my friend..."
  pm............................................................|
||---------------------------------------------------------------||
||---------------------------------------------------------------||
||---------------------------------9-9-9-9-9-9-9-7-7-7-7-7-7-7-7-||
||-4-4-4-4-4-4-4-7-7-7-7-7-7-7-7-7-7-7-7-7-7-7-7-5-5-5-5-5-5-5-5-||
||-2-2-2-2-2-2-2-5-5-5-5-5-5-5-5-5-7-7-7-7-7-7-7-5-5-5-5-5-5-5-5-||
||---------------------------------------------------------------||

"When the moon becomes red..."
              fdbk
||--------------------------||
||--------------------------||
||--------------------------||
||---9--------(9)-----X\----||
||--------------------X\----||
||--------------------------||

"It's a Friday 13th..."
  pm............................................................|
||---------------------------------------------------------------||
||---------------------------------------------------------------||
||---------------------------------9-9-9-9-9-9-9-7-7-7-7-7-7-7-7-||
||-4-4-4-4-4-4-4-7-7-7-7-7-7-7-7-7-7-7-7-7-7-7-7-5-5-5-5-5-5-5-5-||
||-2-2-2-2-2-2-2-5-5-5-5-5-5-5-5-5-7-7-7-7-7-7-7-5-5-5-5-5-5-5-5-||
||---------------------------------------------------------------||


   "I           am                 a prophet of doom"
||------------------------------------------------------||
||------------------------------------------------------||
||----4-----2-4-------4--2-4-----4---2-4-------4----2-4-||
||---------------0-0---0--------------------------------||
||-2-----2--------------------0----0--------------------||
||----------------------------------------3-3-----3-----||


"So now the star has fallen..."
"The seventh seal..."
  pm............................................................|
||---------------------------------------------------------------||
||---------------------------------------------------------------||
||---------------------------------9-9-9-9-9-9-9-7-7-7-7-7-7-7-7-||
||-4-4-4-4-4-4-4-7-7-7-7-7-7-7-7-7-7-7-7-7-7-7-7-5-5-5-5-5-5-5-5-||
||-2-2-2-2-2-2-2-5-5-5-5-5-5-5-5-5-7-7-7-7-7-7-7-5-5-5-5-5-5-5-5-||
||---------------------------------------------------------------||

"Are you paranoid?..."
              fdbk
||--------------------------||
||--------------------------||
||--------------------------||
||---9--------(9)-----X\----||
||--------------------X\----||
||--------------------------||

"This stone's called Apophis..."
  pm............................................................|
||---------------------------------------------------------------||
||---------------------------------------------------------------||
||---------------------------------9-9-9-9-9-9-9-7-7-7-7-7-7-7-7-||
||-4-4-4-4-4-4-4-7-7-7-7-7-7-7-7-7-7-7-7-7-7-7-7-5-5-5-5-5-5-5-5-||
||-2-2-2-2-2-2-2-5-5-5-5-5-5-5-5-5-7-7-7-7-7-7-7-5-5-5-5-5-5-5-5-||
||---------------------------------------------------------------||


   "I           am                 a prophet of doom"
||------------------------------------------------------||
||------------------------------------------------------||
||----4-----2-4-------4--2-4-----4---2-4-------4----2-4-||
||---------------0-0---0--------------------------------||
||-2-----2--------------------0----0--------------------||
||----------------------------------------3-3-----3-----||


III.  OUTRO/"My soul's on fire" riff:
(Play these slow, dirge-like)
||-----------------------------------------------||
||-----------------------------------------------||
||-----6---9-------------------------------------||
||-4---6---9---9/16-----------6----6/9--9-8-9\---||
||-4---4---7---7/14---\---4---4----4/7--7-6-7\---||
||-2----------------------2----------------------||


(Beatles/Sitar stuff doesn't have guitars)


"My    soul's on    fire..."
||-----------------------------------------------||
||-----------------------------------------------||
||-----6---9-------------------------------------||
||-4---6---9---9/16-----------6----6/9--9-8-9\---||
||-4---4---7---7/14---\---4---4----4/7--7-6-7\---||
||-2----------------------2----------------------||


Change up
                                (2 times)
||---------------------------------------|
||---------------------------------------|
||---------------------------------------|
||--13---12--11--10------13--12-11--10---|
||--11---10---9---8------11--10--9---8---|
||---------------------------------------|

                                 (1 time)
|----------------------------------------|
|----------------------------------------|
|----------------------------------------|
|-7---6---5---4--------7--6----5-----4---|
|-5---4---3---2--------5--4----3-----2---|
|----------------------------------------|

                                  (1 time)
|----------------------------------------|
|----------------------------------------|
|----------------------------------------|
|----------------------------------------|
|--6---5---4---3--------6--5----4----3---|
|--4---3---2---1--------4--3----2----1---|


"My soul's on fire..."
||-----------------------------------------------||
||-----------------------------------------------||
||-----------------------------------------------||
||-----6---9---9/16-----------6----6/9--9-8-9\---||
||-4---4---7---7/14---\---4---4----4/7--7-6-7\---||
||-2----------------------2----------------------||


END with random solo and feedback effects...
figure those out on your own!
Добавлено: 20.07.2012
Другие материалы по этой песне:
  • Аккорды и текст

Страница создана 25.05.2012
http://primanota.ru/type-o-negative/profit-of-doom-chords.htm
Привет, Гость.
Предлагаем пройти революционный курс по гитаре.
Подарок от PrimaNota.Ru, забирай!