PrimaNota.ru - самый крупный в мире бесплатный архив песенных текстов, аккордов, табулатур и нот


Tyler The Creator - Answer - аккорды и текст, таба, видео

Регистрация Запомнить меня
Войти через:  Facebook Google Twitter Vk Yandex Mail.ru

Tyler The Creator - Answer - аккорды и текст, таба, видео

Печатать
Просмотров: 986
Answer
Tyler The Creator
-------------------------------------------------------------------------------
                             Answer - Tyler the Creator
-------------------------------------------------------------------------------
Tabbed by: Corbin Hoder
E-mail: Go fuck yourself

Tuning: Capo 6th fret

e|-----------------0--3--0--X2-----------------0--303-----------------0--3--0|
B|-----------0--3------------------------0--3-------------------0--3---------|
G|--------0---------------------------0----------------------0---------------|
D|-----2---------------------------2----------------------2------------------|
A|--3---------------------------0----------------------0---------------------|
E|---------------------------------------------------------------------------|


************************************

| /   slide up
| \   slide down
| h   hammer-on
| p   pull-off
| ~   vibrato
| +   harmonic
| x   Mute note
| b   Bend
| pb  Pre-bend
| br  Bend release
| pbr Pre-bend release
| brb Bend release bend

************************************
Добавлено: 16.09.2014
Другие материалы по этой песне:
  • Аккорды и текст

Страница создана 24.07.2013
http://primanota.ru/tyler-the-creator/answer-chords.htm
Привет, Гость.
Предлагаем пройти революционный курс по гитаре.
Подарок от PrimaNota.Ru, забирай!