PrimaNota.ru - самый крупный в мире бесплатный архив песенных текстов, аккордов, табулатур и нот


Tyler The Creator - Analog 2 - таба, видео

Регистрация Запомнить меня
Войти через:  Facebook Google Twitter Vk Yandex Mail.ru

Tyler The Creator - Analog 2 - таба, видео

Печатать
Просмотров: 87
Analog 2: by Tyler, The Creator 


Intro/Verse  Bass      Chorus
  Cm         Line   Cm  BM(flat5th) Bbm
e-3------]---------]-3----1----1---------|
B-4------]---------]-4----4----2---------|
G-5------]-----6-8-]-5----4----3---------|
D--------]---6-----]---------------------|
A--------]-6-------]---------------------|
E--------]---------]---------------------|

Frank Ocean Vocal Line (0:40)
e---------------------------------------------------------|
B-4-4-4-4--9-11-11-9---9-9-11-9---9-6-6-8-6-4-------------|
G---------------------------------------------------------|
D---------------------------------------------------------|
A---------------------------------------------------------|
E---------------------------------------------------------|

Second time
e-------------------------------------------6-------------|
B-4-4-4-4--9-11-11-9---9-9-11-9---9-6-6-8-6---------------|
G---------------------------------------------------------|
D---------------------------------------------------------|
A---------------------------------------------------------|
E---------------------------------------------------------|

Frank Verse (0:52)
e----------4h6h8---8-8-6---4---4------------8-8-8-8--6---4---4---|
B-4-4-4-4--------------------6---4--4-4-4-4----------------6---4-|
G----------------------------------------------------------------|
D----------------------------------------------------------------|
A----------------------------------------------------------------|
E----------------------------------------------------------------|

e---------8-8-8-8-6-6-6----4------------------------------|
B-4-4-4-4----------------6---4---4-4-4-4-4p2p1------------|
G----------------------------------------------3-1--------|
D---------------------------------------------------------|
A---------------------------------------------------------|
E---------------------------------------------------------|

e-13--11------------------------------------------------|
B---------13--11--9-11---13p11p9--9h11/13-13------------|
G-------------------------------------------------------|
D-------------------------------------------------------|
A-------------------------------------------------------|
E-------------------------------------------------------|

e-13--11-------------------------------------------------|
B---------13--11--9-11---13p11p9---9b10b9----------------|
G------------------------------------------8-------------|
D--------------------------------------------------------|
A--------------------------------------------------------|
E--------------------------------------------------------|

Metronome break

Part 2
 G#m  GM(flat5th) F#m       Bass Line
e------------]------------------------------|
B-4---2---2--]------------------------------|
G-4---4---2--]------------------------------|
D-6---5---4--]-------------------7--9-------|
A------------]----------------7-------------|
E------------]-------------7----------------|

Syd (2:25)                     Tyler
e--11-11-9-11-9--7-7--9~-5~-----4/7~---------------|
B--------------------------------------------------|
G--8--8--6-8--6--4-4--6--2------1/4----------------|
D--------------------------------------------------|
A--------------------------------------------------|
E--------------------------------------------------|

Syd                              Tyler
e--9/11-11-9-11-9--7-7--9~-5~----11--11-11--9/7----|
B--------------------------------------------------|
G--6/8--8--6-8--6--4-4--6--2-----8---8---8--6/4----|
D--------------------------------------------------|
A--------------------------------------------------|
E--------------------------------------------------|

Synth (2:38)
e-------------------------------------------------------------------------|
B--------16----------16---------14------------14-------14------14----14---|
G-----16----16----16---------16----16-------14--14---14--14--14--14-------|
D--18----------18---------17---------17---16-------16------16------16--16-|
A-------------------------------------------------------------------------|
E-------------------------------------------------------------------------|

e--------------------------------------------------------------------|
B--------16----------16--------14-------------14--------------14-----|
G-----16----16----16--------16----16--------14------14-----14--------|
D--18----------18--------------------17---16-----16-----16-----------|
A--------------------------------------------------------------------|
E--------------------------------------------------------------------|

Horn line (2:50)
e-7---7---7----2-2-4-4-7----|
B-7---7---7----2-2-4-4-7----|
G---------------------------|
A---------------------------|
E---------------------------|

Syd and Tyler (3:18)   Play twice
e-7/9/11-11-11-11--9-7~------5/7/9-9-9-9--9-5~-----------|
B--------------------------------------------------------|
G-4/6/8--8--8--8---6-4~------2/4/6-6-6-6--6-2~-----------|
D--------------------------------------------------------|
A--------------------------------------------------------|
E--------------------------------------------------------|

Syd's Verse (3:18) Listen for timing  
e-11~--14~--11~--7-5~---4~--2~--0~--4-----------|
B--------------------------------------2~-------|
G-----------------------------------------------|
D-----------------------------------------------|
A-----------------------------------------------|
E-----------------------------------------------|

Tabbed by Jared Scherer
FEED GOD CABBAGE
Добавлено: 15.06.2013
Другие материалы по этой песне:
  • Аккорды и текст

Страница создана 15.06.2013
http://primanota.ru/tyler-the-creator/analog-2-chords.htm
Привет, Гость.
Предлагаем пройти революционный курс по гитаре.
Подарок от PrimaNota.Ru, забирай!