PrimaNota.ru - самый крупный в мире бесплатный архив песенных текстов, аккордов, табулатур и нот


Tyler Farr - Chicks Trucks And Beer - таба, видео

Регистрация Запомнить меня
Войти через:  Facebook Google Twitter Vk Yandex Mail.ru

Tyler Farr - Chicks Trucks And Beer - таба, видео

Печатать
Просмотров: 92
-------------------------------------------------------------------------------
                             SONG NAME - Band Name
-------------------------------------------------------------------------------
Tabbed by:
E-mail:

Tuning:
Intro:
e|----------------------------------------------------2----------------------|
B|----------------------------------------------------3----------------------|
G|----------------------------------------------------2----------------------|
D|----------------------------------------------------0----------------------|
A|--b2--b2--b2p0----b2b2b2-b2-b2p0---b2--b2--b2p0----------------------------|
E|---------------------------------------------------------------------------|

Verse: A, D 

e|-----------------------------------------------------------2~--------------|
B|-----------------------------------------------------------3~--------------|
G|--2-----------2--2--2-----------2--2-----2-----------2--2--2~--------------|
D|--2-----------2--2--2-----------2--2-----2-----------2--2--0~--------------|
A|--0---0-3-4---0--0--0----0-3-4--0--0-----0---0-3-4---0--0------------------|
E|---------------------------------------------------------------------------|

Chorus: 
                 A
It's just some rural route rockin'
          D
I don't ever see it stopping
           C             G          A
Got them good old boys hoppin' oh yeah
               A
And they're spending every dollar
           D                              C
Make 'em hoot, and make 'em holler, woo hoo
            D              ?
It's how we do it up in here

Chicks, trucks, and beer

Bridge:




************************************

| /   slide up
| \   slide down
| h   hammer-on
| p   pull-off
| ~   vibrato
| +   harmonic
| x   Mute note
| b   Bend
| pb  Pre-bend
| br  Bend release
| pbr Pre-bend release
| brb Bend release bend

************************************
Добавлено: 11.12.2015
Вам также может быть интересно:
Другие материалы по этой песне:
  • Аккорды и текст

Страница создана 11.12.2015
http://primanota.ru/tyler-farr/chicks-trucks-and-beer-chords.htm
Привет, Гость.
Предлагаем пройти революционный курс по гитаре.
Подарок от PrimaNota.Ru, забирай!