PrimaNota.ru - самый крупный в мире бесплатный архив песенных текстов, аккордов, табулатур и нот


Tyler Bryant - Cold Heart - таба, видео

Регистрация Запомнить меня
Войти через:  Facebook Google Twitter Vk Yandex Mail.ru

Tyler Bryant - Cold Heart - таба, видео

Печатать
Просмотров: 46
Уроки эстрадного вокала в Санкт-Петербурге
-------------------------------------------------------------------------------
                   COLD HEART - Tyler Bryant & The Shakedown
-------------------------------------------------------------------------------
Tabbed by: aLEC dICKSON
E-mail: alecdickson1128@gmail.com

Tuning: Half Step Down / Drop D     (Db Ab db Gb Bb eb)

INTRO: 
eb|------------------------------------------------------------|
Bb|------------------------------------------------------------|
Gb|------------------------------------------------------------|
db|-10------7----------10------7----------10------5----5--5\-3-|
Ab|-10------7----------10------7----------10------5----5--5\-3-|
Db|-10------7----------10------7----------10------5----5--5\-3-|

eb|--------------------------------------------------------------------------------------|
Bb|--------------------------------------------------------------------------------------|
Gb|---------9--9--9----9--9--9----9--9--9----9--9--9----9--9--9----7--7\-5----5--5p-2----|
db|-0--0----0--0--0----0--0--0----0--0--0----0--0--0----0--0--0----7--7\-5----5--5p-2----|
Ab|-0--0----0--0--0----0--0--0----0--0--0----0--0--0----0--0--0----5--5\-3----3--3--0----|
Db|-0--0----0--0--0----0--0--0----0--0--0----0--0--0----0--0--0----0--0--0----0--0--0----|

VERSE 1:                                                                                x2
eb|--------------------------------------------------------------------------------------|
Bb|--------------------------------------------------------------------------------------|
Gb|-9--9--9----9--9--9----9--9--9----9--9--9----9--9--9----9--9--9----7--7\-5----5--5p-2-|
db|-0--0--0----0--0--0----0--0--0----0--0--0----0--0--0----0--0--0----7--7\-5----5--5p-2-|
Ab|-0--0--0----0--0--0----0--0--0----0--0--0----0--0--0----0--0--0----5--5\-3----3--3--0-|
Db|-0--0--0----0--0--0----0--0--0----0--0--0----0--0--0----0--0--0----0--0--0----0--0--0-|

PRE-CHORUS 1:
eb|---------------------------------------------------------------------------|
Bb|-------12-12-10-10--------------12-12-10-10--------------12-12-10-10-------|
Gb|-------12-12-10-10--------------12-12-10-10--------------12-12-10-10-------|
db|---------------------------------------------------------------------------|
Ab|-0--0---------------12\---0--0---------------12\---0--0-----------------5--|
Db|-0--0---------------------0--0---------------------0--0-----------------5--|

CHORUS 1:
eb|------------------------------------------------------------------------------------------------|
Bb|------------------------------------------------------------------------------------------------|
Gb|------------------------------------------------------------------------------------------------|
db|-------5--5--------------------------------------------5--5-------------------------------------|
Ab|-0--0--------3--3--5--3----3---4--4--5--5--3/-5--0--0--------3--3--5--3----3---4--4--5--5--3\-5-|
Db|-0--0-----------------3----3---4--4--5--5--------0--0-----------------3----3---4--4--5--5-------|

eb|-------------------------------------------------------------------------------------------|
Bb|-------------------------------------------------------------------------------------------|
Gb|-------------------------------------------------------------------------------------------|
db|-------5--5--------------------------------------------5--5--------------------------------|
Ab|-0--0--------3--3--5--3----3---4--4--5--5--3/-5--0--0--------3--3--5--3------5-----5--3--3-|
Db|-0--0-----------------3----3---4--4--5--5--------0--0-----------------3------5-----5--3--3-|

POST-CHORUS 1:
eb|--------------------------------------------------------------------------------------|
Bb|--------------------------------------------------------------------------------------|
Gb|---------9--9--9----9--9--9----9--9--9----9--9--9----9--9--9----7--7\-5----5--5p-2----|
db|-0--0----0--0--0----0--0--0----0--0--0----0--0--0----0--0--0----7--7\-5----5--5p-2----|
Ab|-0--0----0--0--0----0--0--0----0--0--0----0--0--0----0--0--0----5--5\-3----3--3--0----|
Db|-0--0----0--0--0----0--0--0----0--0--0----0--0--0----0--0--0----0--0--0----0--0--0----|

VERSE 2:
eb|--------------------------------------------------------------------------------------|
Bb|--------------------------------------------------------------------------------------|
Gb|-9--9--9----9--9--9----9--9--9----9--9--9-------9--9----9--9--9----7--7\-5----5--5p-2-|
db|-0--0--0----0--0--0----0--0--0----0--0--0-------0--0----0--0--0----7--7\-5----5--5p-2-|
Ab|-0--0--0----0--0--0----0--0--0----0--0--0-------0--0----0--0--0----5--5\-3----3--3--0-|
Db|-0--0--0----0--0--0----0--0--0----0--0--0-------0--0----0--0--0----0--0--0----0--0--0-|

eb|--------------------------------------------------------------------------------------|
Bb|--------------------------------------------------------------------------------------|
Gb|-9--9--9----9--9--9----9--9--9----9--9--9----9--9--9----9--9--9----7--7\-5----5--5p-2-|
db|-0--0--0----0--0--0----0--0--0----0--0--0----0--0--0----0--0--0----7--7\-5----5--5p-2-|
Ab|-0--0--0----0--0--0----0--0--0----0--0--0----0--0--0----0--0--0----5--5\-3----3--3--0-|
Db|-0--0--0----0--0--0----0--0--0----0--0--0----0--0--0----0--0--0----0--0--0----0--0--0-|

PRE-CHORUS 2:
eb|---------------------------------------------------------------------------|
Bb|-------12-12-10-10--------------12-12-10-10--------------12-12-10-10-------|
Gb|-------12-12-10-10--------------12-12-10-10--------------12-12-10-10-------|
db|---------------------------------------------------------------------------|
Ab|-0--0---------------12\---0--0---------------12\---0--0-----------------5--|
Db|-0--0---------------------0--0---------------------0--0-----------------5--|

CHORUS 2:
eb|------------------------------------------------------------------------------------------------|
Bb|------------------------------------------------------------------------------------------------|
Gb|------------------------------------------------------------------------------------------------|
db|-------5--5--------------------------------------------5--5-------------------------------------|
Ab|-0--0--------3--3--5--3----3---4--4--5--5--3/-5--0--0--------3--3--5--3----3---4--4--5--5--3\-5-|
Db|-0--0-----------------3----3---4--4--5--5--------0--0-----------------3----3---4--4--5--5-------|

eb|---------------------------------------------------------------------------------------------|
Bb|---------------------------------------------------------------------------------------------|
Gb|---------------------------------------------------------------------------------------------|
db|-------5--5--------------------------------------------5--5----------------------------------|
Ab|-0--0--------3--3--5--3----3---4--4--5--5--3/-5--0--0--------3--3--5--3--------5-----5--3--3-|
Db|-0--0-----------------3----3---4--4--5--5--------0--0-----------------3--------5-----5--3--3-|

POST-CHORUS 2:
eb|------------------------------------------------------------|
Gb|------------------------------------------------------------|
Bb|------------------------------------------------------------|
db|-10------7----------10------7----------10------5----5--5\-3-|
Ab|-10------7----------10------7----------10------5----5--5\-3-|
Db|-10------7----------10------7----------10------5----5--5\-3-|

SOLO:
eb|---------------------------------------------------------------------------------------------|
Bb|------------------------------------------------------------------10-----15------------------|
Gb|-/14----12-------------10-12-/14-10~------------12----10---12-----10--12-12b14rb12p10--------|
db|-----15----12~---12~------------------12p10--------12----------12---------------------12-12~-|
Ab|--------------------------------------------/14----------------------------------------------|
Db|---------------------------------------------------------------------------------------------|

eb|-----------------------------------------------------------------------------|
Bb|-------12/13\12\10/12\10\8/10\8\7/8\7\6~------------------------------6/8\6~-|
Gb|-------------------------------------------9-/10\9\7\5/7\5\4-2-/7-7-7--------|
db|-10h12-9-/10\9-\7-/9-\7-\5/7-\5\4/5\4\3~------------------------------3/5\3~-|
Ab|-------------------------------------------7-/8-\7\5\3/5\3\2-0-/5-5-5--------|
Db|-----------------------------------------------------------------------------|

eb|-------------------------------------------------------------------|
Bb|-------------------------------------------------------------------|
Gb|-9b10rb9--7b9rb7--7~~---4b5~~---4~~---2~~---12b14~~----12-14-12-11-|
db|-------------------------------------------------------------------|
Ab|-------------------------------------------------------------------|
Db|-------------------------------------------------------------------|

eb|--------10-----------------------------------------15b17---15~~~-13-15-15/17-13~---17b19~--20b22~--22b24~-|
Bb|-/15~~~----13p10------------------------------------------------------------------------------------------|
Gb|-----------------12b14rb12p10----10-12-14-10~-------------------------------------------------------------|
db|------------------------------12--------------------------------------------------------------------------|
Ab|----------------------------------------------------------------------------------------------------------|
Db|----------------------------------------------------------------------------------------------------------|

POST-CHORUS 2:
eb|----------------------------------------------------------------------------------------|
Bb|----------------------------------------------------------------------------------------|
Gb|----------------------------------------------------------------------------------------|
db|----------------------------------------------------------------------------------------|
Ab|----------------------------------------------------------------------------------------|
Db|-0--0----0--0--0----0--0--0----0--0--0----0--0--0----0--0--0----0--0--0----0--0--0--12\-|

CHORUS 3                                          (Bend is performed quickly)
eb|------------------------------------------------------------------------------------------------|
Bb|-----------------------------------------------10b10.5rb10--------------------------------------|
Gb|-----------------------------------------------10b10.5rb10--------------------------------------|
db|-------------------------------------------12---------------------------------------------------|
Ab|------------------------------------------------------------------------------------------------|
Db|------------------------------------------------------------------------------------------------|

eb|------------------------------------------------------------------------------------------------|
Bb|---------------------------------12b13----------------------------------------------------------|
Gb|---------------------------------12b13--12p10- -------------------------------------------------|
db|----------------------------------------------12--12~~~~~~~~~~~~~~~~~~--------------------------|
Ab|------------------------------------------------------------------------------------------------|
Db|------------------------------------------------------------------------------------------------|

eb|------------------------------------------------------------------------------------------------|
Bb|------------------------------------------------------------------------------------------------|
Gb|------------------------------------------------------------------------------------------------|
db|-------5--5--------------------------------------------5--5-------------------------------------|
Ab|-0--0--------3--3--5--3----3---4--4--5--5--3/-5--0--0--------3--3--5--3----3---4--4--5--5--3\-5-|
Db|-0--0-----------------3----3---4--4--5--5--------0--0-----------------3----3---4--4--5--5-------|

eb|---------------------------------------------------------------------------------------------|
Bb|---------------------------------------------------------------------------------------------|
Gb|---------------------------------------------------------------------------------------------|
db|-------5--5--------------------------------------------5--5----------------------------------|
Ab|-0--0--------3--3--5--3----3---4--4--5--5--3/-5--0--0--------3--3--5--3--------5-----5--3--3-|
Db|-0--0-----------------3----3---4--4--5--5--------0--0-----------------3--------5-----5--3--3-|

OUTRO:
eB|---------------------------------------------------------------------------------------------|
Bb|---------------------------------------------------------------------------------------------|
Gb|---------------------------------------------------------------------------------------------|
db|-0-----0-----5~~~~~~---\-3-----3-----4-----5-----0-----0-----7~~~~~~---\-3-----3-----4-----5-|
Ab|-0-----0-----------------3-----3-----4-----5-----0-----0-----------------3-----3-----4-----5-|
Db|-0-----0-----------------3-----3-----4-----5-----0-----0-----------------3-----3-----4-----5-|

eb|-------------------------------------------------------------------------------------------------|
Bb|-------------------------------------------------------------------------------------------------|
Gb|-------------------------------------------------------------------------------------------------|
db|-0--0--0-----8~~~~~~---\-3-----3-----4-----5-----0-----0-----10~~~~~---\-3------3------4-------5-|
Ab|-0--0--0-----------------3-----3-----4-----5-----0-----0-----------------3------3------4-------5-|
Db|-0--0--0-----------------3-----3-----4-----5-----0-----0-----------------3------3------4-------5-|
    .  .  .
eb|---------------------------------------------------------------------------------------------|
Bb|---------------------------------------------------------------------------------------------|
Gb|---------------------------------------------------------------------------------------------|
db|-0-------------------------------------------------------------------------------------------|
Ab|-0-------------------------------------------------------------------------------------------|
Db|-0-------------------------------------------------------------------------------------------|

************************************

| /   slide up
| \   slide down
| h   hammer-on
| p   pull-off
| ~   vibrato
| .   Palm mute
| b   Bend
| brb Bend release bend

************************************
Добавлено: 24.07.2015
Вам также может быть интересно:
Другие материалы по этой песне:
  • Аккорды и текст

Страница создана 24.07.2015
http://primanota.ru/tyler-bryant/cold-heart-chords.htm
Привет, Гость.
Предлагаем пройти революционный курс по гитаре.
Подарок от PrimaNota.Ru, забирай!