PrimaNota.ru - самый крупный в мире бесплатный архив песенных текстов, аккордов, табулатур и нот


Tyler Bryant - Bittersweet - таба, видео

Регистрация Запомнить меня
Войти через:  Facebook Google Twitter Vk Yandex Mail.ru

Tyler Bryant - Bittersweet - таба, видео

Печатать
Просмотров: 105
Bittersweet- Tyler Bryant
Tabbed by Natasha West
Drop D
Key: B major

Intro:

e|----------x-10-x-10-x-10--10-10------------|
B|----------x-10-x-10-x-10--10-10------------|
G|----------x----x----x----------------------| (x3)
D|--7----9--x----x----x----------------------|
A|--7----9--x----x----x----------------------|
D|--7----9--x----x----x----------------------|

e|----------------------------|
B|----------------------------|
G|----------------------------| (x1)
D|----------------------------|
A|-2--2-2-0-------------------|
D|----------4-3-2-0-----------|

Verse:
I tried to put you out…

e|-----------------------------------------------------|
B|-----------------------------------------------------|
G|----------------------------------------4------------| (x4)
D|-----------------2-3--------------------2--0---------|
A|-0--2-2-2-2--2-5-----0--0-2-2--0-2-2—-0--------------|
D|-----------------------------------------------------|

Pre-Chorus:
And I shiver…

e|--0--------------------------|
B|--3-(For 8)------------------|
G|--2---------2-----x-4--------| (x1)
D|------------2-(x3)x—2--------|
A|------------0-----x----------|
D|-----------------------------|

Well it's cold…

e|-------------------|
B|-------------------|
G|-------------------| (x1)
D|-9---0---7~--------|
A|-9---0---7~--------|
D|-9---0---7~--------|

And I shiver…

e|--0--------------------------|
B|--3-(For 8)------------------|
G|--2---------2-----x-4--------| (x1)
D|------------2-(x3)x—2--------|
A|------------0-----x----------|
D|-----------------------------|

I tried too fake…

e|-------------------|
B|-------------------|
G|-------------------| (x2)
D|-9---0---7~--------|
A|-9---0---7~--------|
D|-9---0---7~--------|

Chorus:
And now you got me down on my knees…

e|----------------------------------------|
B|----------------------------------------|
G|----------------------------------------| (x1)
D|-9-----0-----7-----9-----9-----7-----9~-|
A|-9(x8)-0(x8)-7(x8)-9(x8)-9(x16)-7(x4)9~-|
D|-9-----0-----7-----9-----9-----7-----9~-|

Verse:
You put your hold on me, I can't get away…

e|-----------------------------------------------------|
B|-----------------------------------------------------|
G|----------------------------------------4------------| (x5)
D|-----------------2-3--------------------2--0---------|
A|-0--2-2-2-2--2-5-----0--0-2-2--0-2-2—-0--------------|
D|-----------------------------------------------------|

Pre-chorus:
And I shiver…

e|--0--------------------------|
B|--3-(For 8)------------------|
G|--2---------2-----x-4--------| (x1)
D|------------2-(x3)x—2--------|
A|------------0-----x----------|
D|-----------------------------|

Well it's cold…

e|-------------------|
B|-------------------|
G|-------------------| (x1)
D|-9---0---7~--------|
A|-9---0---7~--------|
D|-9---0---7~--------|

And I shiver…

e|--0--------------------------|
B|--3-(For 8)------------------|
G|--2---------2-----x-4--------| (x1)
D|------------2-(x3)x—2--------|
A|------------0-----x----------|
D|-----------------------------|

I tried too fake…

e|-------------------|
B|-------------------|
G|-------------------| (x1)
D|-9---0---7~--------|
A|-9---0---7~--------|
D|-9---0---7~--------|

Chorus:
And now you got me down on my knees…

e|----------------------------------------|
B|----------------------------------------|
G|----------------------------------------| (x1)
D|-9-----0-----7-----9-----9-----7-----9~-|
A|-9(x8)-0(x8)-7(x8)-9(x8)-9(x16)-7(x4)9~-|
D|-9-----0-----7-----9-----9-----7-----9~-|

Bridge:
I go to rehab…

e|----------x-10-x-10-x-10--10-10---------------|
B|----------x-10-x-10-x-10--10-10---------------|
G|----------x----x----x-------------------------| (x3)
D|--7----9--x----x----x-------------------------|
A|--7----9--x----x----x-------------------------|
D|--7----9--x----x----x-------------------------|

e|----------------------------|
B|----------------------------|
G|----------------------------| (x1)
D|----------------------------|
A|-2--2-2-0-------------------|
D|----------4-3-2-0-----------|

Another relapse…

e|----------x-10-x-10-x-10--10-10---------------|
B|----------x-10-x-10-x-10--10-10---------------|
G|----------x----x----x-------------------------| (x3)
D|--7----9--x----x----x-------------------------|
A|--7----9--x----x----x-------------------------|
D|--7----9--x----x----x-------------------------|

e|----------------------------|
B|----------------------------|
G|----------------------------| (x1)
D|----------------------------|
A|-2--2-2-0-------------------|
D|----------4-3-2-0-----------|

Solo- Rhythm (I'll tab the solo out later)

e|---------------------------|
B|---------------------------|
G|---------------------------| (x2 Strum chords second time round)
D|-9-9---0-0---7-7---9-9-----|
A|-9-9---0-0---7-7---9-9-----|
D|-9-9---0-0---7-7---9-9-----|

Pre-chorus:
And I shiver

e|--0--------------------------|
B|--3-(For 8)------------------|
G|--2---------2-----x-4--------| (x1)
D|------------2-(x3)x—2--------|
A|------------0-----x----------|
D|-----------------------------|

And it's cold…

e|-------------------|
B|-------------------|
G|-------------------| (x1)
D|-9---0---7~--------|
A|-9---0---7~--------|
D|-9---0---7~--------|

And I shiver…

e|--0--------------------------|
B|--3-(For 8)------------------|
G|--2---------2-----x-4--------| (x1)
D|------------2-(x3)x—2--------|
A|------------0-----x----------|
D|-----------------------------|

I tried too fake…

e|-------------------|
B|-------------------|
G|-------------------| (x1)
D|-9---0---7~--------|
A|-9---0---7~--------|
D|-9---0---7~--------|

Chorus:
And now you got me down on my knees…

e|----------------------------------------|
B|----------------------------------------|
G|----------------------------------------| (x1)
D|-9-----0-----7-----9-----9-----7-----9~-|
A|-9(x8)-0(x8)-7(x8)-9(x8)-9(x16)-7(x4)9~-|
D|-9-----0-----7-----9-----9-----7-----9~-|

Outro:

e|-----------------------------------------------------|
B|-----------------------------------------------------|
G|----------------------------------------4------------| (x4)
D|-----------------2-3--------------------2--0---------|
A|-0--2-2-2-2--2-5-----0--0-2-2--0-2-2—-0--------------|
D|-----------------------------------------------------|

************************************

| /   slide up
| \   slide down
| h   hammer-on
| p   pull-off
| ~   vibrato
| +   harmonic
| x   Mute note
| b   Bend
| pb  Pre-bend
| br  Bend release
| pbr Pre-bend release
| brb Bend release bend

************************************
Website: http://www.tylerbryantmusic.com
Добавлено: 27.06.2012
Вам также может быть интересно:
Другие материалы по этой песне:
  • Аккорды и текст

Страница создана 27.06.2012
http://primanota.ru/tyler-bryant/bittersweet-chords.htm
Привет, Гость.
Предлагаем пройти революционный курс по гитаре.
Подарок от PrimaNota.Ru, забирай!