PrimaNota.ru - самый крупный в мире бесплатный архив песенных текстов, аккордов, табулатур и нот


Tygers Of Pan Tang - Dont Stop By - таба, бас-таба, видео

Регистрация Запомнить меня
Войти через:  Facebook Google Twitter Vk Yandex Mail.ru

Tygers Of Pan Tang - Dont Stop By - таба, бас-таба, видео

Печатать
Просмотров: 121
-------------------------------------------------------------------------------
                             DON'T STOP BY - Tygers Of Pan Tang
-------------------------------------------------------------------------------

Tuning: EADGBe

RIFF 1 (4x)
e|---------------------------------------------------------------------------|
B|---------------------------------------------------------------------------|
G|---------------------------------------------------------------------------|
D|-----9-9-9-9-9-9-9-9--5-5-5-5-5-5-5-5--7-7-7-7-7-7-7-7--9-9-9-7-7-7-7-7----|
A|-----7-7-7-7-7-7-7-7--3-3-3-3-3-3-3-3--5-5-5-5-5-5-5-5--7-7-7-5-5-5-5-5----|
E|---------------------------------------------------------------------------|
       x x x x x x x x  x x x x x x x x  x x x x x x x x  x x x x x x x x

RIFF 2 (8x)
e|---------------------------------------------------------------------------|
B|---------------------------------------------------------------------------|
G|---------------------------------------------------------------------------|
D|-----9-----5-----7---------------------------------------------------------|
A|-----7-----3-----5-----7---5-----------------------------------------------|
E|-----------------------5---3-----------------------------------------------|

RIFF 3
e|---------------------------------------------------------------------------|
B|---------------------------------------------------------------------------|
G|-----5-----4-----2----------------5-----7-----9----------------------------|
D|-----5-----4-----2-----2----------5-----7-----9----------------------------|
A|-----3-----2-----0-----2----------3-----5-----7----------------------------|
E|-----------------------0---------------------------------------------------|

RIFF 2 (8x)
e|---------------------------------------------------------------------------|
B|---------------------------------------------------------------------------|
G|---------------------------------------------------------------------------|
D|-----9-----5-----7---------------------------------------------------------|
A|-----7-----3-----5-----7---5-----------------------------------------------|
E|-----------------------5---3-----------------------------------------------|

RIFF 3
e|---------------------------------------------------------------------------|
B|---------------------------------------------------------------------------|
G|-----5-----4-----2----------------5-----7-----9----------------------------|
D|-----5-----4-----2-----2----------5-----7-----9----------------------------|
A|-----3-----2-----0-----2----------3-----5-----7----------------------------|
E|-----------------------0---------------------------------------------------|

RIFF 1 (2x)
e|---------------------------------------------------------------------------|
B|---------------------------------------------------------------------------|
G|---------------------------------------------------------------------------|
D|-----9-9-9-9-9-9-9-9--5-5-5-5-5-5-5-5--7-7-7-7-7-7-7-7--9-9-9-7-7-7-7-7----|
A|-----7-7-7-7-7-7-7-7--3-3-3-3-3-3-3-3--5-5-5-5-5-5-5-5--7-7-7-5-5-5-5-5----|
E|---------------------------------------------------------------------------|
       x x x x x x x x  x x x x x x x x  x x x x x x x x  x x x x x x x x

RIFF 2 (8x) SOLO BACKGROUND
e|---------------------------------------------------------------------------|
B|---------------------------------------------------------------------------|
G|---------------------------------------------------------------------------|
D|-----9-----5-----7---------------------------------------------------------|
A|-----7-----3-----5-----7---5-----------------------------------------------|
E|-----------------------5---3-----------------------------------------------|

SOLO
e|---------------------------------------------------------------------------|
B|-----15p12-17p12-----15p12-17p12-----15p12-17p12---------------------------|
G|-14b-------------14b-------------14b--------------14b14b-14p12----14p12----|
D|---------------------------------------------------------------14-------14-|
A|---------------------------------------------------------------------------|
E|---------------------------------------------------------------------------|

e|-----------------------------------------------------------------------15b-|
B|------------------------------------------------15p12-17p12-----15p12------|
G|-------12\11--------------------------------14b-------------14b------------|
D|-12h14-------14p12-9h12----------------------------------------------------|
A|------------------------10p9-7h9-10h12p10----------------------------------|
E|---------------------------------------------------------------------------|

e|-15-14-12h14p12----12----12-14-15--17-15-14-12-14--------------------------|
B|----------------15----15--------------------------15-12-------15-12--------|
G|--------------------------------------------------------14-12-------14b-12-|
D|---------------------------------------------------------------------------|
A|---------------------------------------------------------------------------|
E|---------------------------------------------------------------------------|

e|---15h17--19-17-15\14--17-15-14\12--15-14-12-----14-12--------12-----------|
B|---------------------------------------------15--------15-13-----15-13-12--|
G|---------------------------------------------------------------------------|
D|---------------------------------------------------------------------------|
A|---------------------------------------------------------------------------|
E|---------------------------------------------------------------------------|

e|--------------------------------------------12-----------------------------|
B|-----15-13-12-----13-12------------------------15p12-----------------------|
G|--------------14--------14-12---14b14b~--------------14b14b~---------------|
D|---------------------------------------------------------------------------|
A|---------------------------------------------------------------------------|
E|---------------------------------------------------------------------------|

e|---------------------------------------------------------------------------|
B|---------------------------------------------------------------------------|
G|-----14p12h14p12-----------------------------------------------------------|
D|-------------------14p12h14p12-----12--------------------------------------|
A|--------------------------------14----14-12h14--12--10---------------------|
E|--------------------------------------------------------12-----------------|

e|---------------------------------------------------------------------------|
B|---------------------------------------------------------------------------|
G|-----------------------12\11-9h11-------11h12--14b14p12h14-12--------------|
D|--------------------12------------12h14------------------------------------|
A|--------------12h14--------------------------------------------------------|
E|-----12h14h15--------------------------------------------------------------|

e|---------------------------------------------------------------------------|
B|-----15---13-12-13--12h1312----12------------------------------------------|
G|----------------------------14-----12h14--11h12--9h11----------------------|
D|-------------------------------------------------------12p9----------------|
A|-------------------------------------------------------------10------------|
E|---------------------------------------------------------------------------|

e|---------------------------------------------------------------------------|
B|---------------------------------------------------------------------------|
G|---------------------------------------------------------------------------|
D|---------------------------------------------------------------------------|
A|---------------------------------------------------------------------------|
E|---------------------------------------------------------------------------|

RIFF 2 (8x)
e|---------------------------------------------------------------------------|
B|---------------------------------------------------------------------------|
G|---------------------------------------------------------------------------|
D|-----9-----5-----7---------------------------------------------------------|
A|-----7-----3-----5-----7---5-----------------------------------------------|
E|-----------------------5---3-----------------------------------------------|

RIFF 3
e|---------------------------------------------------------------------------|
B|---------------------------------------------------------------------------|
G|-----5-----4-----2----------------5-----7-----9----------------------------|
D|-----5-----4-----2-----2----------5-----7-----9----------------------------|
A|-----3-----2-----0-----2----------3-----5-----7----------------------------|
E|-----------------------0---------------------------------------------------|

RIFF 1 (6x) FADEOUT
e|---------------------------------------------------------------------------|
B|---------------------------------------------------------------------------|
G|---------------------------------------------------------------------------|
D|-----9-9-9-9-9-9-9-9--5-5-5-5-5-5-5-5--7-7-7-7-7-7-7-7--9-9-9-7-7-7-7-7----|
A|-----7-7-7-7-7-7-7-7--3-3-3-3-3-3-3-3--5-5-5-5-5-5-5-5--7-7-7-5-5-5-5-5----|
E|---------------------------------------------------------------------------|
       x x x x x x x x  x x x x x x x x  x x x x x x x x  x x x x x x x x

| /  slide up
| \  slide down
| h  hammer-on
| p  pull-off
| ~  vibrato
| +  harmonic
| x  Mute note
| pb pre-bend
| b  bend (full)
| hb bend (half)


===============================================================================
Добавлено: 29.06.2012
Вам также может быть интересно:
Другие материалы по этой песне:

Страница создана 11.03.2012
http://primanota.ru/tygers-of-pan-tang/dont-stop-by-chords.htm
Привет, Гость.
Предлагаем пройти революционный курс по гитаре.
Подарок от PrimaNota.Ru, забирай!