PrimaNota.ru - самый крупный в мире бесплатный архив песенных текстов, аккордов, табулатур и нот


Tycho - Montana - таба, бас-таба, видео

Регистрация Запомнить меня
Войти через:  Facebook Google Twitter Vk Yandex Mail.ru

Tycho - Montana - таба, бас-таба, видео

Печатать
Просмотров: 72
Авторы музыки: Tycho

-------------------------------------------------------------------------------
                             MONTANA - Tycho
-------------------------------------------------------------------------------
Tabbed by: Pat

Tuning: Standard, capo on 7th fret, frets relative to capo

Intro/Main Riff heard throughout the song

This is my first tab, figured it out after seeing Tycho live. If someone can help add more to this, it would 
be appreciated. Its a beautiful song just like all of Tycho's work

e|------------------------------------------------------------0--------------|
B|----------3-3-------------3-3-------------3-3-------------3---3------------|
G|------2-2-----2-2-----2-2-----2-2-----2-2-----2-2-----2-2-------2----------|
D|--0-0-------------0-0-------------0-0-------------0-0----------------------|
A|---------------------------------------------------------------------------|
E|---------------------------------------------------------------------------|

e|---------------------------------------------------------------------------|
B|------------------------------------------------------------0--------------|
G|----------2-2-------------2-2-------------2-2-------------2---2------------|
D|------0-0-----0-0-----0-0-----0-0-----0-0-----0-0-----0-0-------0----------|
A|--2-2-------------2-2-------------2-2-------------2-2----------------------|
E|---------------------------------------------------------------------------|

e|---------------------------------------------------------------------------|
B|---------------------------------------------------------------------------|
G|----------0-0-------------0-0---------------------------------2-2----------|
D|------0-0-----0-0-----0-0-----0-0---------0-0---------4-4-0-0--------------|
A|--0-0-------------0-0-----------------0-0-----0-0-2-2----------------------|
E|----------------------------------3-3--------------------------------------|

That's the main riff, I'm pretty sure error free. If you want to use this as a base to start from just give
me credit for posting this first. Thanks, and enjoy


************************************

| /   slide up
| \   slide down
| h   hammer-on
| p   pull-off
| ~   vibrato
| +   harmonic
| x   Mute note
| b   Bend
| pb  Pre-bend
| br  Bend release
| pbr Pre-bend release
| brb Bend release bend

************************************
Добавлено: 22.09.2014
Другие материалы по этой песне:
  • Аккорды и текст

Страница создана 22.09.2014
http://primanota.ru/tycho/montana-chords.htm
Привет, Гость.
Предлагаем пройти революционный курс по гитаре.
Подарок от PrimaNota.Ru, забирай!