PrimaNota.ru - самый крупный в мире бесплатный архив песенных текстов, аккордов, табулатур и нот


Tycho - Awake - таба, бас-таба, видео

Регистрация Запомнить меня
Войти через:  Facebook Google Twitter Vk Yandex Mail.ru

Tycho - Awake - таба, бас-таба, видео

Печатать
Просмотров: 98
Авторы музыки: Tycho

-------------------------------------------------------------------------------
                             AWAKE - Tycho
-------------------------------------------------------------------------------
Tabbed by: @mike_venusaur i do covers and original songs on instagram!
E-mail: mikev423@gmail.com

Gtr. 1
Palm Muted with Reverb
Intro played once
e|---------------------------------------------------------------------|
B|---------------------------------------------------------------------|
G|--6-6-6-6-6-6-6-6-6-6-6-6-6-6-6-6-6-6-6-6-6-6-6-6-6-6-6-6-6-6-6-6----|
D|---------------------------------------------------------------------|
A|---------------------------------------------------------------------|
E|---------------------------------------------------------------------|

e|---------------------------------------------------------------------|
B|---------------------------------------------------------------------|
G|--6-6-6-6-6-6-6-6-6-6-6-6-6-6-6-6-6-6-6-6-6-6/3-3-3-3-3-3-3-3-3-3----|
D|---------------------------------------------------------------------|
A|---------------------------------------------------------------------|
E|---------------------------------------------------------------------|

Played throughout the song after intro, drops out at 1:17. In at 1:27. Out at 1:39.
e|---------------------------------------------------------------------|
B|---------------------------------------------------------------------|
G|--6-6-6-6-6-6-6-6-6-6-6-6-6-6-6-6-6-6-6-6-6-6-6-6-6-6-6-6-6-6-6-6/---|
D|---------------------------------------------------------------------|
A|---------------------------------------------------------------------|
E|---------------------------------------------------------------------|

e|---------------------------------------------------------------------|
B|---------------------------------------------------------------------|
G|--3-3-3-3-3-3-3-3-3-3-3-3-3-3-3-3-8-8-8-8-8-8-6-6-6-6-6-6-6-6-6-6----|
D|---------------------------------------------------------------------|
A|---------------------------------------------------------------------|
E|---------------------------------------------------------------------|

2:11-2:54
e|---------------------------------------------------------------------|
B|---------------------------------------------------------------------|
G|--6-6-6-6-6-6-6-6-6-6-6-6-6-6-6-6-6-6-6-6-6-6-6-6-6-6-6-6-6-6-6-6----|
D|---------------------------------------------------------------------|
A|---------------------------------------------------------------------|
E|---------------------------------------------------------------------|

e|---------------------------------------------------------------------|
B|---------------------------------------------------------------------|
G|--6-6-6-6-6-6-6-6-6-6-6-6-6-6-6-6-6-6-6-6-6-6/3-3-3-3-3-3-3-3-3-3----|
D|---------------------------------------------------------------------|
A|---------------------------------------------------------------------|
E|---------------------------------------------------------------------|

3:17-3:38
e|---------------------------------------------------------------------|
B|---------------------------------------------------------------------|
G|--6-6-6-6-6-6-6-6-6-6-6-6-6-6-6-6-6-6-6-6-6-6-6-6-6-6-6-6-6-6-6-6/---|
D|---------------------------------------------------------------------|
A|---------------------------------------------------------------------|
E|---------------------------------------------------------------------|

e|---------------------------------------------------------------------|
B|---------------------------------------------------------------------|
G|--3-3-3-3-3-3-3-3-3-3-3-3-3-3-3-3-8-8-8-8-8-8-6-6-6-6-6-6-6-6-6-6----|
D|---------------------------------------------------------------------|
A|---------------------------------------------------------------------|
E|---------------------------------------------------------------------|

3:49 - Played once
e|---------------------------------------------------------------------|
B|---------------------------------------------------------------------|
G|--6-6-6-6-6-6-6-6-6-6-6-6-6-6-6-6-6-6-6-6-6-6-6-6-6-6-6-6-6-6-6-6----|
D|---------------------------------------------------------------------|
A|---------------------------------------------------------------------|
E|---------------------------------------------------------------------|

e|---------------------------------------------------------------------|
B|---------------------------------------------------------------------|
G|-6-6-6-6-6-6-6-6-6-6-6-6-6-6-6-6-6-6-6-6-6/3-3-3-3-3-3-3-3-8-8-8-8---|
D|---------------------------------------------------------------------|
A|---------------------------------------------------------------------|
E|---------------------------------------------------------------------|

4:00 Play til the end 
e|---------------------------------------------------------------------|
B|---------------------------------------------------------------------|
G|--6-6-6-6-6-6-6-6-6-6-6-6-6-6-6-6-6-6-6-6-6-6-6-6-6-6-6-6-6-6-6-6----|
D|---------------------------------------------------------------------|
A|---------------------------------------------------------------------|
E|---------------------------------------------------------------------|

e|---------------------------------------------------------------------|
B|---------------------------------------------------------------------|
G|--6-6-6-6-6-6-6-6-6-6-6-6-6-6-6-6-6-6-6-6-6-6/3-3-3-3-3-3-3-3-3-3----|
D|---------------------------------------------------------------------|
A|---------------------------------------------------------------------|
E|---------------------------------------------------------------------|

###

Guitar 2
With Reverb
0:22-1:17
e|---------------------------------------------------------------------|
B|--11---11------------------------------------------------------------|
G|-----------10------10------10------13---13--13--10------10-----------|
D|---------------11------11------11-------------------11---------------|
A|---------------------------------------------------------------------|
E|---------------------------------------------------------------------|

e|---------------------------------------------------------------------|
B|--11---11------------------------------------------------------------|
G|-----------10------10---------10---13---13--//--17-------------------|
D|---------------11------11h13-----------------------------------------|
A|---------------------------------------------------------------------|
E|---------------------------------------------------------------------|

e|---------------------------------------------------------------------|
B|---------------------------------------------------------------------|
G|---------10------------10------10------10------------10--------------|
D|--11h13------13----13------13------13------13----13------13----------|
A|---------------------------------------------------------------------|
E|---------------------------------------------------------------------|

e|---------------------------------------------------------------------|
B|---------------------------------------------------------------------|
G|------13---13--13------------13---13--13-----------------------------|
D|--11-----------------11---11--------------11-11-11-11-11-11-11-11-11-|
A|---------------------------------------------------------------------|
E|---------------------------------------------------------------------|

e|---------------------------------------------------------------------|
B|---------------------------------------------------------------------|
G|---------------------------------10-----------10---------------------|
D|--11-11-11-11-11-11-11-11-11h13------13---13------13--11-11-11-11-11-|
A|---------------------------------------------------------------------|
E|---------------------------------------------------------------------|

Synth
1:18
    F   Gb  Ab  F   Gb    F   Gb  Db
e|---------------------------------------------------------------------|
B|---------------------------------------------------------------------|
G|--------------------------------18-----------------------------------|
D|--15--16--18--15--16----15--16---------------------------------------|
A|---------------------------------------------------------------------|
E|---------------------------------------------------------------------|
    F   Gb  Db     Gb  Ab    F   Gb  Db   Eb  Db
e|---------------------------------------------------------------------|
B|---------------------------------------------------------------------|
G|----------18---------------------------------------------------------|
D|--15--16---------16--18----15--16--11---13--11-----------------------|
A|---------------------------------------------------------------------|
E|---------------------------------------------------------------------|

1:49
    Db Eb Db  Bb  Ab    Gb  F   Gb  Ab  Bb   Ab  Gb  F
e|---------------------------------------------------------------------|
B|--14h16-14-----------------------------------------------------------|
G|------------15--13----11--10--11--13--15---13--11--10----------------|
D|---------------------------------------------------------------------|
A|---------------------------------------------------------------------|
E|---------------------------------------------------------------------|

    Eb Eb Db Eb Bb  Eb Eb Db Eb Bb   Eb Eb Db Eb Bb Eb Eb Db Eb Gb
e|---------------------------------------------------------------------|
B|---------------------------------------------------------------------|
G|--8--8--6--8-------8--8--6--8------8--8--6--8-----8--8--6--8--11-----|
D|--------------8----------------8---------------8---------------------|
A|---------------------------------------------------------------------|
E|---------------------------------------------------------------------|

2:00
e|---------------------------------------------------------------------|
B|--11---11------------------------------------------------------------|
G|-----------10------10------10------13---13--13--10------10-----------|
D|---------------11------11------11-------------------11---------------|
A|---------------------------------------------------------------------|
E|---------------------------------------------------------------------|

e|---------------------------------------------------------------------|
B|--11---11------------------------------------------------------------|
G|-----------10------10------10------13---13--13--10-------------------|
D|---------------11------11---------------------------11---------------|
A|---------------------------------------------------------------------|
E|---------------------------------------------------------------------|

e|---------------------------------------------------------------------|
B|--11---11------------------------------------------------------------|
G|-----------10------10------10------13---13--13--10------10-----------|
D|---------------11------11------11-------------------11---------------|
A|---------------------------------------------------------------------|
E|---------------------------------------------------------------------|

e|---------------------------------------------------------------------|
B|--11---11------------------------------------------------------------|
G|-----------10------10------10------13---13------10-------------------|
D|---------------11------11-------------------13-----------------------|
A|---------------------------------------------------------------------|
E|---------------------------------------------------------------------|

2:22
Synth
    F   Gb  Db   F   Gb    F   Gb   Db
e|---------------------------------------------------------------------|
B|---------------------------------------------------------------------|
G|----------18----------------------18---------------------------------|
D|--15--16-------15--16----15--16--------------------------------------|
A|---------------------------------------------------------------------|
E|---------------------------------------------------------------------|

    F   Gb  Db   Gb  Ab    F   Gb  Db
e|---------------------------------------------------------------------|
B|---------------------------------------------------------------------|
G|----------18---------------------------------------------------------|
D|--15--16-------16--18----15--16--11----------------------------------|
A|---------------------------------------------------------------------|
E|---------------------------------------------------------------------|

2:55-3:16
e|---------------------------------------------------------------------|
B|---------------------------------------------------------------------|
G|---------------------------------------------------------------------|
D|--11h13--11---11h13--11---11h13--15----------------------------------|
A|-------------------------------------11--13--------------------------|
E|---------------------------------------------------------------------|

e|---------------------------------------------------------------------|
B|---------------------------------------------------------------------|
G|---------------------------------------------------------------------|
D|--11h13--11---11h13--11---11h13--15----15---15-18---15---------------|
A|---------------------------------------------------------------------|
E|---------------------------------------------------------------------|

That's all the parts! Enjoy


Добавлено: 05.05.2014
Другие материалы по этой песне:
  • Аккорды и текст

Страница создана 05.05.2014
http://primanota.ru/tycho/awake-chords.htm
Привет, Гость.
Предлагаем пройти революционный курс по гитаре.
Подарок от PrimaNota.Ru, забирай!