PrimaNota.ru - самый крупный в мире бесплатный архив песенных текстов, аккордов, табулатур и нот


Ty Segall - So Alone - аккорды и текст, видео

Регистрация Запомнить меня
Войти через:  Facebook Google Twitter Vk Yandex Mail.ru

Ty Segall - So Alone - аккорды и текст, видео

Печатать
Просмотров: 352
Уроки эстрадного вокала в Санкт-Петербурге
So Alone
Ty Segall
e|-----------------------------------------------------------------------------|
B|-----------------------------------------------------------------------------|
G|-----------------------------------------------------------------------------|
D|-----------------------------------------------------------------------------|
A|----------------3--1--3--1-------------3--1--3--1----------------------------|
E|---3--3--3-------------------3--3--3-----------------------------------------|

e|-----------------------------------------------------------------------------|
B|-----------------------------------------------------------------------------|
G|-----------------------------------------------------------------------------|
D|-----------------------------------------------------------------------------|
A|----------------3--1--3--1---------------------------------------------------|
E|---3--3--3-------------------3-----------------------------------------------|

G5                            C5 Bb5 C5 Bb5
I was walking the other day

G5                            C5 Bb5 C5 Bb5
And realized things dont go my way

F5        Eb5     F5   D5   F5   D5
(I dont know what he says here)

      Bb5                 G5
And I feel shitty tonight because

G5 C5 Bb5 Eb5
Im so alone

G5 C5 Bb5 Eb5
Im so alone

G5 C5 Bb5 Eb5
Im so alone

G5 C5 Bb5 Eb5
Yeah, never never never want to let you go

e|-----------------------------------------------------------------------------|
B|-----------------------------------------------------------------------------|
G|-----------------------------------------------------------------------------|
D|-----------------------------------------------------------------------------|
A|----------------3--1--3--1-------------3--1--3--1----------------------------|
E|---3--3--3-------------------3--3--3-----------------------------------------|

e|-----------------------------------------------------------------------------|
B|-----------------------------------------------------------------------------|
G|-----------------------------------------------------------------------------|
D|-----------------------------------------------------------------------------|
A|----------------3--1--3--1---------------------------------------------------|
E|---3--3--3-------------------3-----------------------------------------------|

G5                            C5 Bb5 C5 Bb5
Never coming back these are not my friends

G5                            C5 Bb5 C5 Bb5
(something) never ends

F5        Eb5     F5   D5   F5   D5
(I dont know what he says here)

      Bb5                 G5
And life is shit tonight because

G5 C5 Bb5 Eb5
Im so alone

G5 C5 Bb5 Eb5
Im so alone

G5 C5 Bb5 Eb5
Im so alone

G5 C5 Bb5 Eb5
Yeah, never never never want to let you go

C5
Never never never want to let you go


C5
Never never never want to let you go

C5
Never never never want to let you go

C5              C5                C5 C5 C5 C5 C5
Never never never never never never never

G5 C5 Bb5 Eb5
Im so alone

G5 C5 Bb5 Eb5
Im so alone

G5 C5 Bb5 Eb5
Yeah, never never never gonna let you go
Добавлено: 07.06.2013
Другие материалы по этой песне:
  • Аккорды и текст

Страница создана 07.06.2013
http://primanota.ru/ty-segall/so-alone-chords.htm
Привет, Гость.
Предлагаем пройти революционный курс по гитаре.
Подарок от PrimaNota.Ru, забирай!