PrimaNota.ru - самый крупный в мире бесплатный архив песенных текстов, аккордов, табулатур и нот


Ty Segall - Melted - таба, видео

Регистрация Запомнить меня
Войти через:  Facebook Google Twitter Vk Yandex Mail.ru

Ty Segall - Melted - таба, видео

Печатать
Просмотров: 52
-------------------------------------------------------------------------------
                             Melted - Ty Segall
-------------------------------------------------------------------------------
Tabbed by: BassmanBlazek
E-mail: zlogar.blaz9@gmail.com

Tuning: EADGBe

INTRO/VERSE

e|------------------------------------------------|
B|------------------------------------------------|
G|-----------6-6-6-5-4-4-4-4-4-4-4-4--------------|
D|-2-2-2-2-4-6-6-6-5-4-4-4-4-4-4-4-4--------------|
A|-2-2-2-2-4-4-4-4-3-2-2-2-2-2-2-2-2--------------|
E|-0-0-0-0-2--------------------------------------|

CHORUS

e|---------------------------------------------------------------------------|
B|---------------------------------------------------------------------------|
G|-5-5-5-5-2-2-2-2-----------------------------------------------------------|
D|-5-5-5-5-2-2-2-2-2-2-2-2-4-4-4-4-------------------------------------------|
A|-3-3-3-3-0-0-0-0-2-2-2-2-4-4-4-4-------------------------------------------|
E|-----------------0-0-0-0-2-2-2-2-------------------------------------------|
Добавлено: 15.04.2016
Другие материалы по этой песне:
  • Аккорды и текст

Страница создана 15.04.2016
http://primanota.ru/ty-segall/melted-chords.htm
Привет, Гость.
Предлагаем пройти революционный курс по гитаре.
Подарок от PrimaNota.Ru, забирай!