PrimaNota.ru - самый крупный в мире бесплатный архив песенных текстов, аккордов, табулатур и нот


Ty Segall Band - The Bag Im In - бас-таба, видео

Регистрация Запомнить меня
Войти через:  Facebook Google Twitter Vk Yandex Mail.ru

Ty Segall Band - The Bag Im In - бас-таба, видео

Печатать
Просмотров: 86
g--------------------------------------------------------------------------------------|
d-----------------------------------------11---10--------------------------------------|
a------------11--------11---14---11---12-----------------------------------------------|
e--------12---------12--------------------------------13---12--------------------------|


that pretty much repeats for the entire song with a few exceptions

/= slide up

switching from the verse to the chorus (at least i think its the verse to chorus not 
really sure) this is

played untill going back into the original bass line


g------------------------------------------------------- ------------------------------|
d------------------------------------------11---10-------------------------------------|
a------------11-------11---14---11---12----------------12/14-14-14-14-14-14-14-14------|
e------12---------12--------------------------------13---------------------------------|



these guys kick absolute fucking ass go buy their record.
Добавлено: 14.08.2013
Другие материалы по этой песне:
  • Аккорды и текст

Страница создана 14.08.2013
http://primanota.ru/ty-segall-band/the-bag-im-in-chords.htm
Привет, Гость.
Предлагаем пройти революционный курс по гитаре.
Подарок от PrimaNota.Ru, забирай!