PrimaNota.ru - самый крупный в мире бесплатный архив песенных текстов, аккордов, табулатур и нот


Ty Segall Band - Muscle Man - таба, видео

Регистрация Запомнить меня
Войти через:  Facebook Google Twitter Vk Yandex Mail.ru

Ty Segall Band - Muscle Man - таба, видео

Печатать
Просмотров: 75
Уроки эстрадного вокала в Санкт-Петербурге
Riff 1 

   E     A B
e|---------------------------------------------------------------------------|
B|---------------------------------------------------------------------------|
G|---------------------------------------------------------------------------|
D|-2-2-2-7-9-9-9-------------------------------------------------------------|
A|-2-2-2-7-9-9-9-------------------------------------------------------------|
E|-0-0-0-5-7-7-7-------------------------------------------------------------| 

Riff 2
   D A C A B A F#A
e|---------------------------------------------------------------------------|
B|---------------------------------------------------------------------------|
G|-7---5---4-----------------------------------------------------------------|
D|-7---5---4---4-------------------------------------------------------------|
A|-5-0-3-0-2-0-4-0-----------------------------------------------------------|
E|-------------2-------------------------------------------------------------|


Riff 3


   D     A B
e|---------------------------------------------------------------------------|
B|---------------------------------------------------------------------------|
G|-7-7-7---------------------------------------------------------------------|
D|-7-7-7-7-9-9-9-------------------------------------------------------------|
A|-5-5-5-7-9-9-9-------------------------------------------------------------|
E|-------5-7-7-7-------------------------------------------------------------| 

Riff 4

   A       B
e|---------------------------------------------------------------------------|
B|---------------------------------------------------------------------------|
G|---------------------------------------------------------------------------|
D|-7-7-7-7-9-9-9-------------------------------------------------------------|
A|-7-7-7-7-9-9-9-------------------------------------------------------------|
E|-5-5-5-5-7-7-7-------------------------------------------------------------|



SOLO - 

e|----------------------------------------------------------------------------|
B|-------------------------------------9--9---------7-7-7--9-9-9b-------------|
G|------------------7---7-9-b11-7------9--9--9p7----7-7-7--9-9-9b----9b11-9b11|
D|-----------7-9------9-----------9--------------9----------------------------|
A|-7-5-7-5-9------------------------------------------------------------------|
E|----------------------------------------------------------------------------|


e|---------------------------------------------------------------------------|
B|------------7-7-7--9--9-9------------10-------------------------------------|
G|-7-9-7-9----7-7-7--9--9-9------9b11------11r9-------------------------------|
D|--------------------------9--------------------------------------------------|
A|---------------------------------------------------------------------------|
E|---------------------------------------------------------------------------|





Verse (Riff1 x 8)
chorus (Riff3 x 3 + Riff4)
Verse (Riff1 x 8)
Chorus (Riff3 x 3 + Riff4)
Solo (Riff1 x 4 + Riff3 x 3 + Riff2)
Verse (Riff1 x 3 + Riff2) x 4




Добавлено: 27.11.2015
Другие материалы по этой песне:
  • Аккорды и текст

Страница создана 27.11.2015
http://primanota.ru/ty-segall-band/muscle-man-chords.htm
Привет, Гость.
Предлагаем пройти революционный курс по гитаре.
Подарок от PrimaNota.Ru, забирай!