PrimaNota.ru - самый крупный в мире бесплатный архив песенных текстов, аккордов, табулатур и нот


Ty Segall And Mikal Cronin - Reverse Shark Attack - таба, видео

Регистрация Запомнить меня
Войти через:  Facebook Google Twitter Vk Yandex Mail.ru

Ty Segall And Mikal Cronin - Reverse Shark Attack - таба, видео

Печатать
Просмотров: 109
-------------------------------------------------------------------------------
               REVERSE SHARK ATTACK - Ty Segall and Mikal Cronin
-------------------------------------------------------------------------------
Tabbed by: mickey gral
E-mail: mgral@saic.edu

Tuning: standard

from the collaborative album by Ty Segall and Mikal Cronin "Reverse Shark Attack"

this is only the surf part towards the end of the song
and it is not nearly everything - just an idea
(begins at 5:39ish)

**surf tremolo picking on single note tabs

                  E                                    Am

e|------0---------0------------------------------------0---------------------|
B|-------0--------0------------------------------------1---------------------|
G|--------1-------1----(listen to track----------------2---------------------| 
D|---------2------2-----and strum full chord-----------2---------------------| 
A|----------2-----2-----up and down)-------------------0---------------------|
E|-----------0----0----------------------------------------------------------|

e|---------------------------------------------------------------------------|
B|---------------------------------------------------------------------------|
G|---------------------------------------------------------------------------| 
D|---------------------------------------------------------------------------|
A|----------------------2---------------3-------0----------------------------|
E|----0--------4----------------1--------------------------------------------|

e|----12-------10---12--13-----15---13--12-------10---12---------------------|
B|---------------------------------------------------------------------------|
G|---------------------------------------------------------------------------|
D|---------------------------------------------------------------------------|
A|---------------------------------------------------------------------------|
E|---------------------------------------------------------------------------|

e|-(0)5--------------4--5----7------------0----------------------------------|
B|---------------------------------------------------------------------------|
G|---------------------------------------------------------------------------|
D|---------------------------------------------------------------------------|
A|---------------------------------------------------------------------------|
E|---------------------------------------------------------------------------|


let me know about changes/corrections/additions


************************************

| /   slide up
| \   slide down
| h   hammer-on
| p   pull-off
| ~   vibrato
| +   harmonic
| x   Mute note
| b   Bend
| pb  Pre-bend
| br  Bend release
| pbr Pre-bend release
| brb Bend release bend

************************************
Добавлено: 16.08.2015
Другие материалы по этой песне:
  • Аккорды и текст

Страница создана 16.08.2015
http://primanota.ru/ty-segall-and-mikal-cronin/reverse-shark-attack-chords.htm
Привет, Гость.
Предлагаем пройти революционный курс по гитаре.
Подарок от PrimaNota.Ru, забирай!