PrimaNota.ru - самый крупный в мире бесплатный архив песенных текстов, аккордов, табулатур и нот


Ty Parr - National Aerobic Championship 1988 Theme - таба, видео

Регистрация Запомнить меня
Войти через:  Facebook Google Twitter Vk Yandex Mail.ru

Ty Parr - National Aerobic Championship 1988 Theme - таба, видео

Печатать
Просмотров: 101
This is my very first tab, and I hope you like it!
Listen to the track to get all the timing correct.

Tabbed by: BennyBoyle
Tuning: Standard
/ = slide
b = bend
r = release
p = pull-off
DB = dive Bomb

SOLO 1 (Starts at 1:05)

e|---------------------------------------8-10-12-12b13r12-12b13r12-10----10-12-12b13r12--|
B|------------------------------6-8-8/10------------------------------13-----------------|
G|--5/7-5---------------5-5-5/7----------------------------------------------------------|
D|--------7-5-------5/7------------------------------------------------------------------|
A|------------8-5-8----------------------------------------------------------------------|
E|---------------------------------------------------------------------------------------|

e|-10-------------10--------------------------------------------8-10-12-13-15-15b17r15---|
B|----13b15-13b15----11----13-10-----------------------6-8-8/10--------------------------|
G|----------------------10-------10-12-9-5-------5-5/7-----------------------------------|
D|-----------------------------------------5-5/7-----------------------------------------|
A|---------------------------------------------------------------------------------------|
E|---------------------------------------------------------------------------------------|

e|-15b17r15b17-15p13-------13-15-15b17r15p13---------------------------------------------|
B|-------------------15-15-------------------15------------------------------------------|
G|---------------------------------------------------------------------------------------|
D|---------------------------------------------------------------------------------------|
A|---------------------------------------------------------------------------------------|
E|---------------------------------------------------------------------------------------|
                                             DB
Добавлено: 10.08.2015
Другие материалы по этой песне:
  • Аккорды и текст

Страница создана 10.08.2015
http://primanota.ru/ty-parr/national-aerobic-championship-1988-theme-chords.htm
Привет, Гость.
Предлагаем пройти революционный курс по гитаре.
Подарок от PrimaNota.Ru, забирай!