PrimaNota.ru - самый крупный в мире бесплатный архив песенных текстов, аккордов, табулатур и нот


Twrp - The Hit - таба, видео

Регистрация Запомнить меня
Войти через:  Facebook Google Twitter Vk Yandex Mail.ru

Twrp - The Hit - таба, видео

Печатать
Просмотров: 71
Уроки эстрадного вокала в Санкт-Петербурге
Авторы: TWRP

Great song from two awesome bands. The song is in Dm, so if you want the solos and 
fills, start there.
This is just the main sections of the song. Feel free to correct me or add something in 
the comments.
Do not use this song to blow people pants off. That's an irresponsible use of this tasty lick.

MAIN RIFF|

E||------------------------------------------------------------------------------------------|
B||--------------6-----5--5-----------------6-----5--5-----6-----------6-----5--5------------|
G||--7-----------7-----5--5--5--7--5--------7-----5--5-----7-----------7-----7--7--5--7--5---|
D||--7-----------x-----x--x--5--7--5--------x-----x--x-----7-----------x-----x--x--5--7--5---|
A||--5-----------5-----5--5--5--5--5--------5-----5--5-----5-----------5-----5--5--5--5--5---|
E||------------------------------------------------------------------------------------------|

E|---------------|  Before you run the the comments, I am aware of the super fresh transition here.
B|--10-----8--8--|  I just cant quite figure it out.
G|--10-----10-10-|
D|--0------0--0--|
A|---------------|
E|---------------|

Verse Backing

E|------------------------------|
B|------------------------------|
G|--7---------x-7---x-7---------| X2
D|--7---------x-7---x-7---------|
A|--5---------x-5---x-5---------|
E|------------------------------|

E|------------------------------|
B|------------------------------|
G|--5---------x-5---x-5---------| X2
D|--5---------x-5---x-5---------|
A|--3---------x-3---x-3---------|
E|------------------------------|

Verse Solo

E||-------------------------------------------------------------------------------------------------|
B||-------------------------------------------------------------------------------------------------|
G||-------------------------------------------10----------------------------------------------10----|
D||-------------------------------10-12----------12-------------------------------10-12----------12-|
A||-------------8-10-8-10-10-12---------10-12-------------------8-10-8-10-10-12---------10-12-------|
E||-10-13-10-13-------------------------------------10-13-10-13-------------------------------------|

E|-------------------------------------------------------------------------------------|
B|-------------------------------------------------------------------------------------| Repeat
G|-------------------------------------10----------------------------------------10----|
D|-------------------------10-12----------12-------------------------10-12----------12-|
A|-----------7-8-7-8-10-12-------10-12-----------------7-8-7-8-10-12-------10-12-------|
E|-8-10-8-10---------------------------------8-10-8-10---------------------------------|
Добавлено: 22.06.2016
Другие материалы по этой песне:

Страница создана 22.06.2016
http://primanota.ru/twrp/hit-chords.htm
Привет, Гость.
Предлагаем пройти революционный курс по гитаре.
Подарок от PrimaNota.Ru, забирай!