PrimaNota.ru - самый крупный в мире бесплатный архив песенных текстов, аккордов, табулатур и нот


Two Towns Over - Lift Me Up - таба, видео

Регистрация Запомнить меня
Войти через:  Facebook Google Twitter Vk Yandex Mail.ru

Two Towns Over - Lift Me Up - таба, видео

Печатать
Просмотров: 68
This should be it.
 
intro/verse basic progression

  Em7            Csus2        G/B            Asus7
|------3--------------3-------------3---------------------------|
|------3--------------3-------------3---------------------------|
|------0--------------0----0--------0----0---0---0-0------0-----|
|---2-------2------2-------------0-----------2p0-0------0-0-----|
|--------------2h3-------3----2--------2---------0---0h2--------|
|-0-------0-----------------------------------------------------|


|------3--------------3-------------3---------------------------|
|------3--------------3-------------3---------------------------|
|------0--------------0----0--------0----0---0-0-0-0---0---0----|
|---2-------2------2-------------0-----------0p2-2-2-2-2-2-2----|
|--------------2h3-------3----2--------2---------0-0-0-0-0-0----|
|-0-------0-----------------------------------------------------|

chorus chords(strum)
  Csus2 Em7    D Dsus4 G
|-3-----3------2-3-----3----|
|-3-----3------3-3-----3----|
|-0-----0------2-2-----0----|
|-2-----2------0-0-----0----|
|-3-----2--------------2----|
|-------0--------------3----|


guitar two comes in with the drums, and just strums all the chords.
 
 
Benjamin Bowman
614 Dundee Circle
West Melbourne, FL  32904
Phone: 321 728-5696
E-mail: benjaminbowman@cfl.rr.com
     
Добавлено: 07.08.2013
Другие материалы по этой песне:
  • Аккорды и текст

Страница создана 07.08.2013
http://primanota.ru/two-towns-over/lift-me-up-chords.htm
Привет, Гость.
Предлагаем пройти революционный курс по гитаре.
Подарок от PrimaNota.Ru, забирай!