PrimaNota.ru - самый крупный в мире бесплатный архив песенных текстов, аккордов, табулатур и нот


Two Tongues - If I Could Make You Do Things - таба, видео

Регистрация Запомнить меня
Войти через:  Facebook Google Twitter Vk Yandex Mail.ru

Two Tongues - If I Could Make You Do Things - таба, видео

Печатать
Просмотров: 77
-------------------------------------------------------------------------------
                             if i could make you do things
-------------------------------------------------------------------------------
Tabbed by: TheTroy
Tuning: Half step down

ok. this is an ATTEMPT. the chords are tricky to figure out and im sure
they arent perfect but they are a start. feedback would be appreciated.

heres an update as of july 27th. with help from the comment (sorry i forget
your name) and time i have used i have been able to figure more of this song
out and have corrections


intro/verse
e|--------0-0-0~|--|---------------------------------------------------------|
B|--------3-3-3~|--|---------------------------------------------------------|
G|-7-7-7~-0-0-0~|--|-77x777----/-14br-14-14----------------------------------|
D|-5-5-5~-2-2-2~|X3|-55x555-7~-/-x----x--x-----------------------------------|
A|-3-3-3~-2-2-2~|--|-33x333-5~-/-12br-12-12----------------------------------|
E|--------0-0-0~|--|--------3~-----------------------------------------------|

verse verse pt2
e|---------------------------------------------------------------------------|
B|---------------------------------------------------------------------------|
G|-------------------------16br-------16br-----------------------------------|
D|----12-12-------12---------------------------------------------------------|
A|---------------------------------------------------------------------------|
E|-12-------8-8-8----15-15------15-15----------------------------------------|

second verse - its the intro just played in a different strum pattern

second verse guitar 2 - listen for when to play each part. (there are
3 parts to this. trhe first part i cant figure out.so im only doing the
other two parts. you'll know what i mean when you listen to the song)
e|-7~----7~----7~--|---------------------------------------------------------|
B|---8~----8~----8~|---------------------------------------------------------|
G|-----9~----9~----|-10-10-10\11-11\9-9\7-7----------------------------------|
D|-----------------|-x--x--x-\x--x-\x-x\x-x----------------------------------|
A|-----------------|-10-10-10\9--9-\7-7\5-5----------------------------------|
E|-----------------|---------------------------------------------------------|

now play verse pt 2

now this part
e|-0-0-0---------------------------------------------------------------------|
B|-3-3-3---------------------------------------------------------------------|
G|-0-0-0-7-7-7---------------------------------------------------------------|
D|-2-2-2-5-5-5-7~------------------------------------------------------------|
A|-2-2-2-3-3-3-5~------------------------------------------------------------|
E|-0-0-0-------3~------------------------------------------------------------|

now you play the second verse part while guitar 2 plays this cool riff. i dont know 
how to play those noises but i do know the one part. youll know when you 
listen and play.
e|------------15-15-14-12----------------------------------------------------|
B|------------------------15-13-12-------------------------------------------|
G|-0--/16-12~----------------------14-12~------------------------------------|
D|---------------------------------------------------------------------------|
A|---------------------------------------------------------------------------|
E|---------------------------------------------------------------------------|

thats about it. ok. i think you can figure out what goes next from here on. goodbye

| /  slide up
| \  slide down
| h  hammer-on
| p  pull-off
| ~  vibrato
| +  harmonic
| x  Mute note
===============================================================================
Добавлено: 24.03.2012
Другие материалы по этой песне:

Страница создана 23.02.2012
http://primanota.ru/two-tongues/if-i-could-make-you-do-things-chords.htm
Привет, Гость.
Предлагаем пройти революционный курс по гитаре.
Подарок от PrimaNota.Ru, забирай!