PrimaNota.ru - самый крупный в мире бесплатный архив песенных текстов, аккордов, табулатур и нот


Two Knights - Ilsa - таба, видео

Регистрация Запомнить меня
Войти через:  Facebook Google Twitter Vk Yandex Mail.ru

Two Knights - Ilsa - таба, видео

Печатать
Просмотров: 17
-------------------------------------------------------------------------------
                             ILSA - Two Knights
-------------------------------------------------------------------------------
Tabbed by: emery01


Such a glorious band!

(I should say this is the Violitionist sessions version from YouTube, not the version on the album,
but it's basically the same)


Tuning: Standard



GUITAR INTRO(A): (he uses fingers through most of the song, but you could probably get away with picking if 
               you have really good technique)
e|---------------------------------------------------------------------------|
B|---------------------------------------------------------------------------|
G|---------------------------------------------------------------------------|
D|-6-----4---9---------(x4)--------------------------------------------------|
A|--4-4/2-2/6----------------------------------------------------------------|
E|0--00----------------------------------------------------------------------|



DRUMS ENTER:

e|---------------------------------------------------------------------------|
B|---------------------------------------------------------------------------|
G|---------------------------------------------------------------------------|
D|4-xx-6------------------4-9-6-6666-----------------------------------------|
A|2-xx-4-------(x7)-then--2/6-4-4444-(i think this isn't in 4/4)-------------|
E|0-xx-0------------------0-0-0-0000-----------------------------------------|


VERSE(B):

e|---------------------------------------------------------------------------|
B|---------------------------------------------------------------------------|
G|---------------------------------------------------------------------------|
D|--4-/6-6/9-9---------------------------------------------------------------|
A|-2----4---6----------------------------------------------------------------|
E|0--0~~~-0------------------------------------------------------------------|


PRE-CHORUS(C):
(Pretty much play these shapes as chords but try to accent the notes that are arppegiated)
e|---------------------------------------------------------------------------|
B|---------------------------------------------------------------------------|
G|---------------------------------------------------------------------------|
D|-6---4-6---4-6---4---------------------------------------------------------|
A|--4--2--4--2--4--2---------------------------------------------------------|
E|0--0-00--0-00--0-0-4-0-2-0-------------------------------------------------|


CHORUS(D):

e|-0-0-------0-0-----0-0-------0-0-------------------------------------------|
B|-0-0-------0-0-----0-0-------0-0-------------------------------------------|
G|-1-1-------1-1-----1-1-------1-1-------------------------------------------|
D|-2-2-------2-2-----2-2-------2-2-------------------------------------------| (This is definitely
A|-2-2-4/6-4-2-2-4/6-2-2-4/6-4-2-2-4/6---------------------------------------|  not in 4/4)
E|-0-0-0---0-0-0-0---0-0-0---0-0-0-0-----------------------------------------|





POST-CHORUS(E): (aka the tapping part)

Basically you hold an open E chord and tap/pull off these notes.

(I'm omitting hammer-on/pull-off symbols for the sake of brevity)

e|---------------------------------------------------------------------------|
B|---------------------------------------------------------------------------|
G|-4-------------------------------------------------------------------------|
D|---4-6-------------(a bunch of times then)---------------------------------|
A|-------6-7-6-4-4-----------------------------h2--h2-h4-h2-h4-h2------------|
E|-------------------------------------------h4--h4--------------------------|


Song structure is pretty basic:

A, B, C, B, C, D, E, D, B, C, E




Obligatory link to vid that helped me figure it out:

https://www.youtube.com/watch?v=lG18kxdel2M



************************************

| /   slide up
| \   slide down
| h   hammer-on
| p   pull-off
| ~   vibrato
| +   harmonic
| x   Mute note
| b   Bend
| pb  Pre-bend
| br  Bend release
| pbr Pre-bend release
| brb Bend release bend

************************************
Добавлено: 26.03.2016
Другие материалы по этой песне:
  • Аккорды и текст

Страница создана 26.03.2016
http://primanota.ru/two-knights/ilsa-chords.htm
Привет, Гость.
Предлагаем пройти революционный курс по гитаре.
Подарок от PrimaNota.Ru, забирай!