PrimaNota.ru - самый крупный в мире бесплатный архив песенных текстов, аккордов, табулатур и нот


Two Gallants - My Love Wont Wait - таба, видео

Регистрация Запомнить меня
Войти через:  Facebook Google Twitter Vk Yandex Mail.ru

Two Gallants - My Love Wont Wait - таба, видео

Печатать
Просмотров: 109
Artist: Two Gallants
Song: My Love Won't Wait
Album: The Bloom And The Blight




Intro:

You can try, but ain t no use
I ll lose it if you cut me loose
You can try, but ain t no use
I ll lose it if you cut me loose





Bb     A     Dm      G      F      C      F      A






Vers:

Dm                    Bb7
Darling please don t hesitate
      Dm              Bb7
Can I get you now, or must I wait?
Dm               Bb7             A
  I can feel my patience running thin

                                    e|----------------------|
                                    B|--------3p2-----2-----|
                                    G|--2--4-------4-----2--|
                                    D|----------------------|
                                    A|----------------------|
                                    E|----------------------|

Dm                 Bb7
 I stare the wall, walk the floor
     Dm            Bb7
But somehow end up at your door
Dm        Bb7              A
  And you refuse to let me in

                                    e|--------------------|
                                    B|--------------------|
                                    G|--------------------|
                                    D|------2h3p2--0--2---|
                                    A|--0-----------------|
                                    E|--------------------|






Chorus:

Bb               A                    Dm
   But something ain t quite right to me
        G               F
I can t seem to let you leave
   C          F       A
My love won t wait





Vers:

Dm                    Bb7
Come back when you re most alone
Dm               Bb7
My coat pocket s full of stones
Dm              Bb7              A
   Hurl at your window while you sleep

                                    e|--------------------------------|
                                    B|--------3p2--------2h3p2--------|
                                    G|--2--4-------4--2---------4--2--|
                                    D|--------------------------------|
                                    A|--------------------------------|
                                    E|--------------------------------|

Dm               Bb7
You don t let me hang around
    Dm             Bb7
But Imma tear your plate ass down
Dm           Bb7              A
  Run to the river bridge and leap

                                    e|--------------------|
                                    B|--------------------|
                                    G|--------------------|
                                    D|------2h3p2--0--2---|
                                    A|--0-----------------|
                                    E|--------------------|



Chorus:

Bb               A                    Dm
   But something ain t quite right to me
        G               F
I can t seem to let you leave
   C          F       A
My love won t wait

Bb              A               Dm
    Don t you threat, don t you fear
          G             F
While I whisper in your ear
        C      F       A
There s no escape





Bridge:


   Dm            Am

e|--10-----------5-----------|
B|--10-----------5-----------|
G|--10-----------5-----------|
D|--12-----------7-----------|
A|--12-----------7-----------|
E|--10-----------5-----------|


e|------------------------|
B|--5h6p5-----------------|
G|---------7--5-----5--7--|
D|---------------7--------|
A|------------------------|
E|------------------------|



   Dm            Am

e|--10-----------5-----------|
B|--10-----------5-----------|
G|--10-----------5-----------|
D|--12-----------7-----------|
A|--12-----------7-----------|
E|--10-----------5-----------|


e|------------------------|
B|--5h6p5-----------------|
G|---------7--5-----5--7--|
D|---------------7--------|
A|------------------------|
E|------------------------|


    Bb     C     A     Bb    C

e|--6------8------7----6-----8---|
B|--6------8------7----6-----8---|
G|--7------9------8----7-----9---|
D|--8------10-----7----8-----10--|
A|--8------10-----7----8-----10--|
E|--6------8------5----6-----8---|




   Dm            Am

e|--10-----------5-----------|
B|--10-----------5-----------|
G|--10-----------5-----------|
D|--12-----------7-----------|
A|--12-----------7-----------|
E|--10-----------5-----------|


e|------------------------|
B|--5h6p5-----------------|
G|---------7--5-----5--7--|
D|---------------7--------|
A|------------------------|
E|------------------------|



   Dm            Am

e|--10-----------5-----------|
B|--10-----------5-----------|
G|--10-----------5-----------|
D|--12-----------7-----------|
A|--12-----------7-----------|
E|--10-----------5-----------|


e|------------------------|
B|--5h6p5-----------------|
G|---------7--5-----5--7--|
D|---------------7--------|
A|------------------------|
E|------------------------|



    Bb     C     A     Bb    C      Dm

e|--6------8------7----6-----8------5---|
B|--6------8------7----6-----8------6---|
G|--7------9------8----7-----9------7---|
D|--8------10-----7----8-----10-----7---|
A|--8------10-----7----8-----10-----5---|
E|--6------8------5----6-----8----------|



Chorus:

Bb               A                    Dm
   But something ain t quite right to me
        G               F
I can t seem to let you leave
   C          F       A
My love won t wait

Bb              A               Dm
    Don t you threat, don t you fear
          G             F
While I whisper in your ear
        C      F       A
There s no escape





Outro:


   Bb                Gm

e|--------------------------------|
B|----------6-----------------6---|
G|--7----------------7------------|
D|--------------------------------|
A|--------------------------------|
E|--------------------------------|


    Bb                   Dm

e|----------------------------------|
B|--8-----9---8---6------6---6------|
G|-------------------7-----------7--|
D|----------------------------------|
A|----------------------------------|
E|----------------------------------|





   Bb                Gm

e|--------------------------------|
B|----------6-----------------6---|
G|--7----------------7------------|
D|--------------------------------|
A|--------------------------------|
E|--------------------------------|


    Bb                   Dm

e|----------------------------------|
B|--8-----9---8---6------6---6------|
G|-------------------7-----------7--|
D|----------------------------------|
A|----------------------------------|
E|----------------------------------|






   Bb               Gm
   You can try, but ain t no use

e|--------------------------------|
B|----------6-----------------6---|
G|--7----------------7------------|
D|--------------------------------|
A|--------------------------------|
E|--------------------------------|


         Bb             Dm
    I ll lose it if you cut me loose

e|----------------------------------|
B|--8-----9---8---6------6---6------|
G|-------------------7-----------7--|
D|----------------------------------|
A|----------------------------------|
E|----------------------------------|






   Bb               Gm
   You can try, but ain t no use

e|--------------------------------|
B|----------6-----------------6---|
G|--7----------------7------------|
D|--------------------------------|
A|--------------------------------|
E|--------------------------------|


         Bb             Dm
    I ll lose it if you cut me loose

e|----------------------------------|
B|--8-----9---8---6------6---6------|
G|-------------------7-----------7--|
D|----------------------------------|
A|----------------------------------|
E|----------------------------------|







repeat this part until the end and end on Dm:


   Bb               Gm
   You can try, but ain t no use

e|--------------------------------|
B|----------6-----------------6---|
G|--7----------------7------------|
D|--------------------------------|
A|--------------------------------|
E|--------------------------------|

   Bb               Dm
   You can try, but ain t no use

e|--------------------------------|
B|----------6-----------------6---|
G|--7----------------7------------|
D|--------------------------------|
A|--------------------------------|
E|--------------------------------|
Добавлено: 26.11.2013
Другие материалы по этой песне:
  • Аккорды и текст

Страница создана 26.11.2013
http://primanota.ru/two-gallants/my-love-wont-wait-chords.htm
Привет, Гость.
Предлагаем пройти революционный курс по гитаре.
Подарок от PrimaNota.Ru, забирай!