PrimaNota.ru - самый крупный в мире бесплатный архив песенных текстов, аккордов, табулатур и нот


Two Gallants - Decay - таба, видео

Регистрация Запомнить меня
Войти через:  Facebook Google Twitter Vk Yandex Mail.ru

Two Gallants - Decay - таба, видео

Печатать
Просмотров: 77
Уроки эстрадного вокала в Санкт-Петербурге
Decay - Two Gallants
http://www.youtube.com/watch?v=OLty9wif4js
____________________________________________________________________________________________

Capo 3

    Csus2 -hh         |     -hh         |     -hh         C                 |
e -----------0-----------------0-----------------0--------3--------1--------|
B --------013---3-----------013---3-----------013---3--------0--------0-----|
G -----0-----------0-----0-----------0-----0-----------0--------0--------0--|
D --------2-----------------2-----------------2--------------------2--------|
A --3--------3--------3--------3--------3--------3--------3-----------------|
E --------------------------------------------------------------------------|

    G6    -hh         G     -hh         G6    -hh         G        -p -p    |
e -----------0-----------------3-----------------0--------3--------10-10----|
B --------013---3-----------013---0-----------013---3--------0-----------0--|
G -----0-----------0-----0-----------0-----0-----------0--------0-----------|
D -----------0--------------0--------------------0-----------------0--0-----|
A --------2-----------------------------------2-----------------------------|
E --3-----------------3--------3--------3-----------------3-----------------|

1: You know how to fall                 | 2: You hold too much in stall
   Take this heart throw it out         |    Take these hands, take this heart from the wall

    Fmaj7add6         |     -hh-hp-hp   |    -hh          |     -hh-hp-hp   |
e -----------0-----------------010010------------0-----------------010010---|
B --------013---1-----------1--------1--------013---1-----------013------1--|
G -----2-----------2-----2-----------------2-----------2-----2--------------|
D -----------0-----------------3-----------------0-----------------3--------|
A --------3-----------------3-----------------3-----------------3-----------|
E --1-----------------1-----------------1-----------------1-----------------|

    G     -hh-hp-hp   |     -hh-hp-hp   |     -hh-hp-hp   |                 |
e -----------010---------------010---------------010---------------3--1--0--|
B --------013---010---------013---010---------013---010---------------------|
G -----0-----------0-----0-----------0-----0-----------0-----0--------------|
D -----------0-----0-----------0-----0-----------0-----0--------0--0--0--0--|
A --------2-----------------2-----------------2-----------------------------|
E --3-----------------3-----------------3-----------------3-----------------|

1: How you swoon and fall               | 2: Scorpions at my feet
                                        |    Bloated arms, decaying teeth

C             Bb        Fmaj7
You know that I want to live
C            Bb     Fmaj7
Dark night upon the innocent lips
C            Bb           Fmaj7
Forage the decay from the inside of your hips
C                Bb              Fmaj7
Scream prostrate light from your throat

Fmaj7 can be plucked like this:
e -----------010------|
B --------01----010---|
G -----2-----------2--|
D -----------3--------|
A --------3--------3--|
E --1-----------------|

End on Fmaj7

____________________________________________________________________________________________

Tabbed by Adam Alfredsson
Добавлено: 01.12.2013
Другие материалы по этой песне:
  • Аккорды и текст

Страница создана 01.12.2013
http://primanota.ru/two-gallants/decay-chords.htm
Привет, Гость.
Предлагаем пройти революционный курс по гитаре.
Подарок от PrimaNota.Ru, забирай!