PrimaNota.ru - самый крупный в мире бесплатный архив песенных текстов, аккордов, табулатур и нот


Two Gallants - Crow Jane - текст песни, таба, видео

Регистрация Запомнить меня
Войти через:  Facebook Google Twitter Vk Yandex Mail.ru

Two Gallants - Crow Jane - текст песни, таба, видео

Печатать
Просмотров: 139
-------------------------------------------------------------------------------
                           Crow Jane - Two Gallants
-------------------------------------------------------------------------------
Tabbed by: David Barron
Email: da7idb@gmail.com

Tuning: Standard (Capo on 2nd fret)

These guys are a really good blues-punk band out of San Francisco, currently signed on 
saddle creek. they're really really really good.

Intro:
e|--------------------------------------------------------------------------------------|
B|--1--------1--------------------------------------------------------------------------|
G|--0h2-2-------2---0---0--2---------------2-0------------------------------------------|
D|--2--------------------------------0h1h2------0-2-0-----------------------------------|
A|--0------0------0---0----0----------------------------3b-0----------------------------|
E|--------------------------------------------------------------------------------------|

e|--------------------------------------------------------------------------------------|
B|----11---11---1-----------------------------------------------------------------------|
G|----22---22---2---------------------------------------2-0-----------------------------|
D|----22---22---2---------0-------------------2—0h1h2------0-2-0------------------------|
A|--0----------0------0h3----3--0-----3-0-3---------------------------3b-0--------------|
E|--------0-----------------------------------------------------------------------------|

Verse Chords:
Dm
Well now crow jane don't make no sense to me,
Am
left me hangin' from the papa tree,
G
no I've never ever felt so free,
Am
look here mama what you're doing to me,
Dm
cause it ain't no difference which way I smile,
Am
I ain't good lookin' from a quarter mile,
G
once had a woman called me "angel child",
Am
reputation keeps me on track,

Chorus Chords:
F               G                C
but who's gonna save me from myself,
F             G                 C
gotta lay the blame on someone else,
Am               G
somehow I ain't got no hope,
C                               F
cause im still running from the sheriffs rope,
Am                               G
my shoes don't fit me cause they feel they don't
C                       F
crow jane quit me and I just cant cope
Am                         G
all I know is that I still run
C                                      F
I pledge allegiance to the settin' sun
F                    G
I must of lost cause crow jane
F              F#/F               C
I never learned from anything I've done.

Fill:

e|---------------------------------------------------------------------------|
B|---1--0--------------------------------------------------------------------|
G|---------------------------------------------------------------------------|
D|---------------------------------------------------------------------------|
A|---3--2--------------------------------------------------------------------|
E|---------------------------------------------------------------------------|

Repeat intro and verse chords then chorus chords, the intro a few times. Then verse 
then chorus again, then intro some more. Figure out the outro for yourself. It's pretty easy 
you know the intro. PLEASE RATE!!!!

| /  slide up
| \  slide down
| h  hammer-on
| p  pull-off
| ~  vibrato
| +  harmonic
| x  Mute note
===============================================================================
Добавлено: 18.06.2012
Другие материалы по этой песне:
  • Аккорды и текст

Страница создана 02.04.2012
http://primanota.ru/two-gallants/crow-jane-chords.htm
Привет, Гость.
Предлагаем пройти революционный курс по гитаре.
Подарок от PrimaNota.Ru, забирай!