PrimaNota.ru - самый крупный в мире бесплатный архив песенных текстов, аккордов, табулатур и нот


Twiztid - Rock The Dead - текст песни, таба, видео

Регистрация Запомнить меня
Войти через:  Facebook Google Twitter Vk Yandex Mail.ru

Twiztid - Rock The Dead - текст песни, таба, видео

Печатать
Просмотров: 116
Song:Rock The Dead
Album:Mostasteless
Year: 1999
Artist:Twiztid

Intro
E--------------------|
B--------------------|
G----6~-4~--6~----4~-|
D-8~-----------8~----|
A--------------------|
E--------------------|

Pre-Verse x4
E--------|
B--------|
G--------|
D-2--X-2-|
A-2--X-2-|
E-0--X-0-|

Verse 1 x8
E------------------|
B------------------|
G------------------|
D-2-222-2--2-222-2-|
A------------------|
E------------------|
    ...      ...

Pre-Chorus 1 x4
E--------|
B--------|
G--------|
D-2--X-2-|
A-2--X-2-|
E-0--X-0-|

Chorus 1 x2
E------------------------|
B------------------------|
G------7--7\-------9--9\-|
D-22-2/7--7\--22-2/9--9\-|
A-22-2/5--5\--22-2/7--7\-|
E-00-0--------00-0-------|

*Verse Again

Middle Of Verse 2 x2
E------------------------|
B------------------------|
G------7--7\-------9--9\-|
D-22-2/7--7\--22-2/9--9\-|
A-22-2/5--5\--22-2/7--7\-|
E-00-0--------00-0-------|

Back To Verse x4
E---------|
B---------|
G---------|
D-2-222-2-|
A---------|
E---------|
    ...

Pre-Chorus 2 x4
E--------|
B--------|
G--------|
D-2--X-2-|
A-2--X-2-|
E-0--X-0-|

*Chorus 2 x4

Post-Chorus 1
E----|
B----|
G----|  Palm Mute
D-2--| All Of Post-Chorus
A-2--|
E-0--|
  .

Verse 3 x8
E---------|
B---------|
G---------|
D-2-222-2-|
A---------|
E---------|
    ...

Middle Of Verse x2
E------------------------|
B------------------------|
G------7--7\-------9--9\-|
D-22-2/7--7\--22-2/9--9\-|
A-22-2/5--5\--22-2/7--7\-|
E-00-0--------00-0-------|

Back To Verse x4
E---------|
B---------|
G---------|
D-2-222-2-|
A---------|
E---------|
    ...

Pre-Chorus x4
E---------|
B---------|
G---------|
D--2--X-2-|
A--2--X-2-|
E--0--X-0-|

Chorus 3 x4
E------------------------|
B------------------------|
G------7--7\-------9--9\-|
D-22-2/7--7\--22-2/9--9\-|
A-22-2/5--5\--22-2/7--7\-|
E-00-0--------00-0-------|

Post-Chorus 2 x2
E-------------------------|
B-------------------------|
G-------------------------|
D-2-222-2-3-5--3-2-22-3-2-|
A-------------------------|
E-------------------------|

Chorus 4 x8
E------------------------|
B------------------------|
G------7--7\-------9--9\-|
D-22-2/7--7\--22-2/9--9\-|
A-22-2/5--5\--22-2/7--7\-|
E-00-0--------00-0-------|

The End!
Добавлено: 13.08.2013
Вам также может быть интересно:
Другие материалы по этой песне:
  • Аккорды и текст

Страница создана 09.06.2012
http://primanota.ru/twiztid/rock-the-dead-chords.htm
Привет, Гость.
Предлагаем пройти революционный курс по гитаре.
Подарок от PrimaNota.Ru, забирай!