PrimaNota.ru - самый крупный в мире бесплатный архив песенных текстов, аккордов, табулатур и нот


Twitty Conway - I Don't Believe I'll Fall In Love Today - аккорды и текст, видео

Регистрация Запомнить меня
Войти через:  Facebook Google Twitter Vk Yandex Mail.ru

Twitty Conway - I Don't Believe I'll Fall In Love Today - аккорды и текст, видео

Печатать
Просмотров: 109
Уроки эстрадного вокала в Санкт-Петербурге
I Don't Believe I'll Fall In Love Today
Twitty Conway
E                                  A
I dont believe I'mm fall in love today.
      B7                           E
While memories of you stand in the way.
                                        A
I just can't make my heart find someone new.
     B7                         E
It's always much to busy loving you.
E                                        A
But I don't believe I'll fall in love today.
      B7                           E
Cause if I did I'm sure I wouldn't stay.
                                      A
You'd come between is like you always do.
B7                                E
Somehow she'd never measure up to you.
     A                                 
Each night I pray I'd wake at dark and find
  E                           B7
another in my heart and on my mind.
     E                              A
Then I awake and hear my poor heart say.
  B7                              E
I don't believe I'll fall in love today

Hers is what I pick out for a fill in or solo below:

 E                 A                    E  E                 A
-0-0---------------x--2-2---------------0--0-0---------------x--
-0---2-4-0-2-0-0---2------4-4-2-2-0-0---0--0---2-4-0-2-0-0---2--
-1---------------1-2------------------2-1--1---------------1-2--
-2-----------------2--------------------2--2-----------------2--
-2-----------------x--------------------2--2-----------------x--
-------------------x-----------------------------------------x--

                   E                 
-------------------0--
---0---------------0--
-2---1-2---1-------1--
---------4---4-2-1-2--
-------------------2--
----------------------
Добавлено: 23.10.2015
Другие материалы по этой песне:
  • Аккорды и текст

Страница создана 21.10.2014
http://primanota.ru/twitty-conway/i-dont-believe-ill-fall-in-love-today-chords.htm
Привет, Гость.
Предлагаем пройти революционный курс по гитаре.
Подарок от PrimaNota.Ru, забирай!