PrimaNota.ru - самый крупный в мире бесплатный архив песенных текстов, аккордов, табулатур и нот


Twisted Sister - The Fire Still Burns - текст песни, таба, видео

Регистрация Запомнить меня
Войти через:  Facebook Google Twitter Vk Yandex Mail.ru

Twisted Sister - The Fire Still Burns - текст песни, таба, видео

Печатать
Просмотров: 131
Авторы музыки: Dee Snider
Авторы текста: Dee Snider
---------------------------------------------------------------------------
THE FIRE STILL BURNS – Twisted Sister
---------------------------------------------------------------------------
Tabbed by: Chris
email: igotsomemailinhere@gmail.com

Tuning:E flat (Eb-Ab-Db-Gb-Bb-eb, I had Eb-G#-C#-F#-Bb-eb)

I was looking on this site for tab to “The Fire Still Burns” by Twisted Sister but 
find any that did most of the song. So I made my own by ear from a video of Eddie playing. 
are probably some mistakes, but I think I got most of it.

Key:

Let chord ring= ~
Palm mute= . . . . etc.
Hammer on= h

Intro 1
eb|------------|------------|------------|------------|
Bb|------------|------------|------------|------------|
Gb|------------|------------|------------|------------|
Db|------------|---5--------|------------|--5---------|
Ab|---5-777----|-----777----|---5-777----|----777-----|
Eb|------------|------------|------------|------------|

|------------|------------|
|------------|------------|
|--5~----7~--|----5-4-5---|
|--5~----7~--|----5-4-5---|
|--5~----7~--|----5-4-5---|
|--3~----5~--|----3-2-3---|
		                  . . .

|------------|------------|------------|------------|
|------------|------------|------------|------------|
|------------|------------|------------|------------|
|------------|---5--------|------------|--5---------|
|---5-777----|-----777----|---5-777----|----777-----|
|------------|------------|------------|------------|

|------------|------------|
|------------|------------|
|--5~----7~--|----5-4-5---|
|--5~----7~--|----5-4-5---|
|--5~----7~--|----5-4-5---|
|--3~----5~--|----3-2-3---|
	                  . . .

Intro 2
|------------|------------|------------|------------|
|------------|------------|------------|------------|
|------------|------------|------------|------------|
|------------|---5--------|------------|--5---------|
|---5-777----|-----777----|---5-777----|----777-----|
|------------|------------|------------|------------|


|------------|------------|
|------------|------------|
|--5~----5~--|--4--5-5-5--|
|--5~----5~--|--4--5-5-5--|
|--3~----5~--|--4--5-5-5--|
|--------3~--|--2--3-3-3--|
		                   . . .

|------------|------------|------------|------------|
|------------|------------|------------|------------|
|------------|------------|------------|------------|
|------------|---5--------|------------|--5---------|
|---5-777----|-----777----|---5-777----|----777-----|
|------------|------------|------------|------------|

|------------|------------|
|------------|------------|
|--5~----5~--|--4--5-5-5--|
|--5~----5~--|--4--5-5-5--|
|--3~----5~--|--4--5-5-5--|
|--------3~--|--2--3-3-3--|
	                   . . .

Verse
|------------|------------|------------|------------|
|------------|------------|------------|------------|
|------------|------------|------------|------------|
|------------|---5--------|------------|--5---------|
|---5-777----|-----777----|---5-777----|----777-----|
|------------|------------|------------|------------|

|------------|------------|
|------------|------------|
|--5~----7~--|----5-4-5---|
|--5~----7~--|----5-4-5---|
|--5~----7~--|----5-4-5---|
|--3~----5~--|----3-2-3---|
	                  . . .

|------------|------------|------------|------------|
|------------|------------|------------|------------|
|------------|------------|------------|------------|
|------------|---5--------|------------|--5---------|
|---5-777----|-----777----|---5-777----|----777-----|
|------------|------------|------------|------------|

|------------|------------|------------|------------|
|------------|------------|------------|------------|
|-4--2-------|-5~3h4h5-5~-|------------|---------5~-|
|-4--2-----4-|-5~------5~-|-----2-2-2--|-5-4-5---5~-|
|-2--0--2--4-|-3~------3~-|-----2-2-2--|-5-4-5---3~-|
|-------3--2-|------------|-----0-3-0--|-3-2-3------|
		                                         . . .

|------------|------------|------------|
|------------|------------|------------|
|---------5--|--4~-4~-4~--|------------|
|---------5--|--4~-4~-4~--|--5-5-5-----|
|-0-0h2-2-3--|--2~-2~-2~--|--5-5-5-----|
|------------|------------|--3-3-3-----|
Добавлено: 30.05.2012
Другие материалы по этой песне:

Страница создана 30.05.2012
http://primanota.ru/twisted-sister/the-fire-still-burns-chords.htm
Привет, Гость.
Предлагаем пройти революционный курс по гитаре.
Подарок от PrimaNota.Ru, забирай!