PrimaNota.ru - самый крупный в мире бесплатный архив песенных текстов, аккордов, табулатур и нот


Twisted Sister - Shoot Em Down - текст песни, таба, бас-таба, видео

Регистрация Запомнить меня
Войти через:  Facebook Google Twitter Vk Yandex Mail.ru

Twisted Sister - Shoot Em Down - текст песни, таба, бас-таба, видео

Печатать
Просмотров: 188
Авторы музыки: Dee Snider
Авторы текста: Dee Snider
-----------------------------------------------------------------------------
                    SHOOT EM' DOWN - Twisted Sister
-----------------------------------------------------------------------------

Tabbed by: Rick Privette
E-mail: keerc850002@aol.com

Tuning: Standard

INTRO: 2 times
E|-------------2-------------------------2------|
B|-------------3-------------------------3------|
G|-------------2---2----------2----------2------|
D|--2----------0---2----------2----------0---2--|
A|--2--------------0----------0--------------2--|
E|--0----------------------------------------0--|

VERSE: 4 times
E|------------------2-----------------------------------2------------------|
B|------------------3-----------------------------------3------------------|
G|------------------2---2---------------2---------------2------------------|
D|--2---2-2-2-2-2---0---2---2-2-2-2-2---2---2-2-2-2-2---0---2---2-2-2-2-2--|
A|--2---0-0-0-0-0-------0---0-0-0-0-0---0---0-0-0-0-0-------2---0-0-0-0-0--|
E|--0-------------------------------------------------------0--------------|
        |---PM---|          |---PM---|      |---PM---|          |---PM---|

BRIDGE:
E|----------2--------------------------------------------------2------2-----|
B|----------3--------------------------------------------------3------3-----|
G|--4---2---2------------------4---------------2---------------2------2-----|
D|--4---2---0---2--------------4---------------2---------------0------0-----|
A|--2---0-------2--------------2---------------0----------------------------|
E|--------------0-----------------------------------------------------------|
-
E|------2--------------------------------2---2---2---2---2---2---2-------|
B|------3--------------------------------3---3---3---3---3---3---3-------|
G|--2---2-----------------4--------------2---2---2---2---2---2---2-------|
D|--2---0---2-------------4--------------0---0---0---0---0---0---0-------|
A|--0-------2-------------2----------------------------------------------|
E|----------0------------------------------------------------------------|
                                       "Make him beg for a little while"

THEN PLAY THE INTRO FOR CHROUS: 2 times
THEN PLAY VERSE: 2 times 
THEN PLAY BRIDGE: 1 time
THEN PLAY INTRO FOR CHROUS AGAIN: 1 time

THEN BEFORE THE SOLO PLAY:
E|--------------------------------------------------------------------------|
B|--------------------------------------------------------------------------|
G|--2--------------------------------4------------------------------2-------|
D|--2--------------------------------4------------------------------2----2--|
A|--0--------------------------------2------------------------------0----2--|
E|-----------------------------------------------------------------------0--|
  "They don't care about feelings"     "They weren't meant to be stepped on"

E|-------------------------------2---2---2---2---2---2--|
B|-------------------------------3---3---3---3---3---3--|
G|---2---------------------------2---2---2---2---2---2--|
D|---2---------------------------0---0---0---0---0---0--|
A|---0--------------------------------------------------|
E|------------------------------------------------------|
   "And while one is healing.  They go..... 

THEN PLAY INTRO FOR SOLO RHYTHEM, but at the end of the solo rhythem add 6 D chrods.

THEN PLAY INTRO: 2 times
THEN PLAY BRIDGE: 1 time
THEN PLAY INTRO: 5 1\2 times
                                   
THEN PLAY:
E|--------------------------------------------------------------------------|
B|--------------------------------------------------------------------------|
G|--5^-----5^r-----5^-----7^-----7^r-----7^---------------------------------|
D|---------------------------------------------12^-----12^-----12^-----12^-\|
A|--------------------------------------------------------------------------|
E|--------------------------------------------------------------------------|
                                                                         END


KEY:
/ slide up
\ slide down
^ bend
r release
x muted string
PM palm mute
Добавлено: 15.07.2012
Другие материалы по этой песне:
  • Аккорды и текст

Страница создана 04.06.2012
http://primanota.ru/twisted-sister/shoot-em-down-chords.htm
Привет, Гость.
Предлагаем пройти революционный курс по гитаре.
Подарок от PrimaNota.Ru, забирай!