PrimaNota.ru - самый крупный в мире бесплатный архив песенных текстов, аккордов, табулатур и нот


Twisted Sister - Come Out And Play - текст песни, таба, видео

Регистрация Запомнить меня
Войти через:  Facebook Google Twitter Vk Yandex Mail.ru

Twisted Sister - Come Out And Play - текст песни, таба, видео

Печатать
Просмотров: 176
Авторы музыки: Dee Snider
Авторы текста: Dee Snider
  this half step up tuning
or you can just play everything one fret up

key:                         F tuning 
 p - pull off   
 h - hammer on                    1 f
 t - taping                       2 C
 b - bend string up               3 G#
 r - release bending              4 D#
 s - slide                        5 A#
 v - vibrato                      6 F
 x - muted string
 f - fast and continuous
  
     .....enjoy!
 
INTRO  
 F--------------------------------------------------------------------|
 C--------------------------------------------------------------------|
G#--------------------------------------------------------------------|
D#--------7757-57757-75---7---7757-57757-75---77----------------------|
A#--------77-7--77-7--5---7---77-7--77-7--5---77----------------------|
 F--------55-5--55-5--3-------55-5--55-5--3---------------------------|
...and play                                   are you afraid...night?
 
 f--------------------------------------------------------------------|
 c----------------------------------------------------0---------------|
G#----------------------------------------------------4------6--------|
D#-7757-57757--5-7------------------------7757-57757--5------7--------|
A#-77-7--77-7----7------------------------77-7--77-7--5------7--------|
 F-55-5--55-5----5------------------------55-5--55-5------------------|
                   behind closet...light?           don't....night...
 
 F---------------------------------------------------------|
 C----0----------------0---------------0-------------------|
G#----4--------6-------4------------6--4-------------------|
D#----5--------7-------5------------7--5-------------------|
A#----5--------7-------5------------7--5-------------------|
 F---------------------------------------------------------|
 ...light...bright...don't...afraid...don't...liiiiight...
 
 F-------------------------------------|
 C-------------------------------------|
G#-------------------------------------|
D#--------7757-57757-75---3b23b023b3b--|
A#--------77-7--77-7--5----------------|
 F--------55-5--55-5--3----------------|
 <- - - - - - - 2  time - - - - - - ->                           

RIFF1                                       END RIFF1
 F-----------------------:---------------------------|
 C-----------------------:---------------------------|
G#-2---------------------:--------54-2---------------|
D#-2---------------3-----:----5-----5-7757-577-7-----|
A#-0---------------3-----:----5-------77-7--77-7-----|
 F-----------------1-----:----3-------55-5--55-5-----|
 <- - - - - - - - - -  2  time  - - - - - - - - - ->
 Come inside...'ll see...  ...decree
RIFF2               END RIFF2
 f---------------------------|
 C---------------------------|
G#---------------------------|
D#--3-----5-----7757-57757---|
A#--3-----5-----77-7--77-7---|
 F-01-----3-----55-5--55-5---|
 <- - - - 2   time  - - - ->
 Oh welcome...
RIFF3                                               END RIFF3
 f-----------------------------------------------------------|
 C-------------------4---------------------------------------|
G#--------------5----4-----5----5----4-------2---------------|
D#--3-----5-----5----4-----5----5----4----5b-2--7757-57757---|
A#--3-----5-----3----2-----3----3----2-------0--77-7--77-7---|
 F-01-----3-------------------------------------55-5--55-5---|
 Just...

chorus
 f-------------------------------------|
 C-------------------------------------|
G#------------5-4-5-4------------------|
D#-5-5--7-7---5-4-5-4-3-5--3b23b023b3b-|
A#-5-5--7-7---3-2-3-2-3-5--------------|
 F-3-3--5-5-----------1-3--------------|
 Come out... Come on out...
 

 f-----------------------------------|
 C-----------------------------------|
G#------------5-7-4------------------|
D#-5-5--7-7---5-7-4-5-7--3b23b023b3b-|
A#-5-5--7-7---3-5-2-5-7--------------|
 F-3-3--5-5---------3-5--------------|
 Come out... Come on out...
 
 f-------------------------------------|
 C-------------------------------------|
G#------------5-4-5-4------------------|
D#-5-5--7-7---5-4-5-4-3-5--3b23b023b3b-|
A#-5-5--7-7---3-2-3-2-3-5--------------|
 F-3-3--5-5-----------1-3--------------|
 Come out... Come on out... 
 
 f----------------------------|
 C----------------------------|
G#------------5-7-4-----------|
D#-5-5--7-7---5-7-4-5-7-------|
A#-5-5--7-7---3-5-2-5-7-------|
 F-3-3--5-5---------3-5-------|
 Come out... Come on out...

 during the solo
f--------------------------------------------------------------------|
C--------------------------------------------------------------------|
G#-----------------------------------4-424--44--424--7-757-757-757-7--|
D#-7-757--77-757--77--757--77--757---4-424--44--424--7-757-757-757-7--|
A#-7-757--77-757--77--757--77--757------------------------------------|
F--------------------------------------------------------------------|

RIFF1
 First pattern of RIFF1 at this time (3/4 parts remain as above)
 f---------------------------------:---
 c---------------------------------:---
G#------------22---2---22----------:---
D#------------22---2---22----3-----:---
A#------------00---0---00----3-----:---
 F--------------------------01-----:---
 Join our...

RIFF2
RIFF3
chorus
 
 ultimate RIFF:
 f------------------------|
 C------------------------|
G#------------------------|
D#-7757-57757-75---77-----|
A#-77-7--77-7--5---77-----|
 F-55-5--55-5--3----------|
Добавлено: 12.07.2012
Другие материалы по этой песне:

Страница создана 23.05.2012
http://primanota.ru/twisted-sister/come-out-and-play-chords.htm
Привет, Гость.
Предлагаем пройти революционный курс по гитаре.
Подарок от PrimaNota.Ru, забирай!