PrimaNota.ru - самый крупный в мире бесплатный архив песенных текстов, аккордов, табулатур и нот


Twin Shadow - Forget - аккорды и текст, таба, видео

Регистрация Запомнить меня
Войти через:  Facebook Google Twitter Vk Yandex Mail.ru

Twin Shadow - Forget - аккорды и текст, таба, видео

Печатать
Просмотров: 160
Forget
Twin Shadow
-------------------------------------------------------------------------------
                             SONG NAME - Band Name
-------------------------------------------------------------------------------
Tabbed by:
E-mail:

Tuning:
Keyboard part
e|------------------------------------------------------------------------------------|
B|-3--3----------3--3-----------------------------------------------------------------|
G|------2--2--5--------2--2--5-----2--------------------------------------------------|
D|------------------------------5-----3--3--5--7----7--7------------------------------|
A|--------------------------------------------------------3--5------------------------|
E|------------------------------------------------------------------------------------|

A#
They'll give us something
                           F
they'll give us so much to forget
Or enough rope to deal with it

A#
They'll give us something
                           F
they'll give us so much to forget
Or enough rope to deal with it

A#
With pencil and light
You heard your love again

     F
you wrestled your nightmares
the sweat in your bedsheets

        C
This is all of it
this is everything
                A#
I'm wanting to forget

************************************
Shaun Trepal
Добавлено: 21.07.2014
Другие материалы по этой песне:
  • Аккорды и текст

Страница создана 21.07.2014
http://primanota.ru/twin-shadow/forget-chords.htm
Привет, Гость.
Предлагаем пройти революционный курс по гитаре.
Подарок от PrimaNota.Ru, забирай!