PrimaNota.ru - самый крупный в мире бесплатный архив песенных текстов, аккордов, табулатур и нот


Twin Peaks - Irene - таба, видео

Регистрация Запомнить меня
Войти через:  Facebook Google Twitter Vk Yandex Mail.ru

Twin Peaks - Irene - таба, видео

Печатать
Просмотров: 61
Twin Peaks - Irene
Off their debut EP "Sunken" - 2013
Tab by Youth Canoe
Go Rays

This song really only has 3 different guitar parts.

Tuning: Standard

Intro/Verse:

E|--0---4---5---2--------|
B|--0---5---5---2--------|
G|--1---6---6---3--------|
D|--2---6---7---4--------|
A|--2---4---7---4--------|
E|--0---0---5---2--------|


Intro Lead (Variation of these notes):


E|---------------------------|
B|---9---9-9----9-9----------|
G|--9-989-9--989-9-98--------|
D|---------------------------|
A|---------------------------|
E|---------------------------|

Chorus Lead:

E|-----------------------|
B|-----------------------|
G|-----------------------|
D|-----------------------|
A|-------------7---------|
E|--0~--2-4/7-9----------|
Добавлено: 18.11.2015
Другие материалы по этой песне:
  • Аккорды и текст

Страница создана 18.11.2015
http://primanota.ru/twin-peaks/irene-chords.htm
Привет, Гость.
Предлагаем пройти революционный курс по гитаре.
Подарок от PrimaNota.Ru, забирай!