PrimaNota.ru - самый крупный в мире бесплатный архив песенных текстов, аккордов, табулатур и нот


Twin Peaks - Fade Away - таба, видео

Регистрация Запомнить меня
Войти через:  Facebook Google Twitter Vk Yandex Mail.ru

Twin Peaks - Fade Away - таба, видео

Печатать
Просмотров: 36
-------------------------------------------------------------------------------
                             FADE AWAY- Twin Peaks
-------------------------------------------------------------------------------
Tabbed by: ivanlav

If you dig it, Rate and Comment!

Tuning: Standard

This song is pretty simple, there are just a few parts to it.

Intro (Power Chords)
(Alternate Picking)

    A                C   D
e|-----------|    e|-----------|
B|-----------|    B|-----------|
G|-----------|    G|-----------|
D|--7-7-7-7--|    D|-10--12--7-|
A|--7-7-7-7--|    A|-10--12--7-|
E|--5-5-5-5--|x20 E|-8---10--5-| continue with A until pre-verse
    D U D U   
  
Pre-verse/Verse Chords
 
    A        D        C#        A        F#       C#
e|-----------------------------------------------------------------------------------|
B|-----------------------------------------------------------------------------------|
G|-----------------------------------------------------------------------------------|
D|--7-7-7-7--12-12-12-11--------7-7-7-7--4-4-4-4--11-11-11-11--------9-9-9-9---------|
A|--7-7-7-7--12-12-12-11--------7-7-7-7--4-4-4-4--11-11-11-11--------9-9-9-9---------|
E|--5-5-5-5--10-10-10-9---(x2)--5-5-5-5--2-2-2-2--9--9--9--9---(x2)--7-7-7-7--(x4)---|
    D U D U  D  U  D  U

Pre-verse Lead

e|-------------------------------|------------------|-------------------|----------------|
B|-------------------------------|------------------|-------------------|----------------|
G|-------------------------------|------------------|-------------------|----------------|
D|--------16-----16h18-16-15-----|--------16--------|--------16---------|-16h18b19-16-15-|
A|--16h19----19------------------|--16h19----19-----|--16h19----19------|----------------|
E|---------------------------(x2)|--------------(x3)|---------------(x2)|----------------|
                                 |hold last note on 3|

(The sequence D|-16h18-16-15-| and D|-16h18b19-16-15-| are pretty much the same, play whatever sounds best)

e|-------------------------------------------|--------------------------------|
B|-------------------------------------------|--------------------------------|
G|-------------------------------------------|--------------------------------|
D|--19--19--19-19-19-19--19--19--19-19-19-19-|-19p18-16-----16h18-16-15-------|
A|-------------------------------------------|----------19--------------------|
E|-------------------------------------------|---------------------------(x2)-|

e|------------------------|------------------------------------|-------------------|
B|------------------------|------------------------------------|-------------------|
G|------------------------|------------------------------------|-------------------|
D|------------16----------|--------16-----------16h18b19-16-15-|--19--19-19-19-19-(fades)|
A|------16h19----19-------|--16h19----19-----------------------|-------------------|
E|------------------(x3)--|---------------(x2)-----------------|-------------------|
    |hold last note on 3|

Bridge Chords
    
    A  B  F#       A  B  F# C#  
e|-------------------------------------|
B|-------------------------------------|
G|--------------------------6----------|
D|--7--9--4--------7--9--4--6----------|
A|--7--9--4--------7--9--4--4----------|
E|--5--7--2--(x2)--5--7--2----(x2)-----|
                   (Faster, more strums)

Outro Chords

    A  C#  D         A  (C# or F#)  F
e|----------------------------------------------------------------------------|
B|----------------------------------------------------------------------------|
G|----------------------------------------------------------------------------|
D|--7--10--12--------7--10-(---4)---3-----------------------------------------|
A|--7--10--12--------7--10-(or-4)---3-----------------------------------------|
E|--5--9---10--(x3)--5--9--(---2)---1-----------------------------------------|

Outro Lead

e|------------------------|--------------------|
B|------------------------|--------------------|
G|------------------------|--------------------|
D|--19--19p18--19---------|--19--19p18--16-----|
A|------------------------|--------------------|
E|-------------------(x3)-|--------------------|



************************************
| h   hammer-on
| p   pull-off
| b   Bend
************************************
Добавлено: 19.03.2016
Другие материалы по этой песне:
  • Аккорды и текст

Страница создана 19.03.2016
http://primanota.ru/twin-peaks/fade-away-chords.htm
Привет, Гость.
Предлагаем пройти революционный курс по гитаре.
Подарок от PrimaNota.Ru, забирай!