PrimaNota.ru - самый крупный в мире бесплатный архив песенных текстов, аккордов, табулатур и нот


Twin Peaks - Boomers - таба, видео

Регистрация Запомнить меня
Войти через:  Facebook Google Twitter Vk Yandex Mail.ru

Twin Peaks - Boomers - таба, видео

Печатать
Просмотров: 42
-------------------------------------------------------------------------------
                            BOOMERS - Twin Peaks
-------------------------------------------------------------------------------
Tabbed by: ivanlav
If you dig it, rate and comment!


Tuning: Standard

Rhythm: 

     A      D                    A      F#

e|---5-5-5--10-10-10--|     e|---5-5-5--2-2-2--|   | 
B|---5-5-5--10-10-10--|     B|---5-5-5--2-2-2--|   |
G|---6-6-6--11-11-11--|     G|---6-6-6--3-3-3--|   |
D|---7-7-7--12-12-12--|     D|---7-7-7--4-4-4--|   |
A|---7-7-7--12-12-12--|     A|---7-7-7--4-4-4--|   |
E|---5-5-5--10-10-10--| x3  E|---5-5-5--2-2-2--|   | x2

There's a lead part during rhythm sounds like:

e|--------------------|     e|-----------------|
B|-----5-------10-----|     B|-----5------2----|
G|---6---6--11----11--|     G|---6---6--3---3--|
D|--------------------|     D|-----------------|
A|--------------------|     A|-----------------|
E|--------------------| x3  E|-----------------|

Verse:

If you don't want to play lead guitar during verse you can play the following chord progression:
Listen to the song to get the timing right

    A  D     A  D     A  F# A       A A A  D     D   D
  
    Slow     Slow    
e|--5--10-|--5--10-|--5--2--5--|   |--5-5-5--10---10--10--|
B|--5--10-|--5--10-|--5--2--5--|   |--5-5-5--10---10--10--|
G|--6--11-|--6--11-|--6--3--6--|   |--6-6-6--11---11--11--|
D|--7--12-|--7--12-|--7--4--7--|   |--7-7-7--12---12--12--|
A|--7--12-|--7--12-|--7--4--7--|   |--7-7-7--12---12--12--|
E|--5--10-|--5--10-|--5--2--5--|x1 |--5-5-5--10---10--10--|x2 


Lead starts off with chords however for 1st verse.

(One strum)

A        D                A        D

How much longer will it be?

Low

e|-----------------------|
B|-----------------------|
G|-----------------------|
D|--4---4---2---2--------|
A|----4---4---4---4--0---|
E|-----------------------| 

High (not always present)

e|-----------------------|
B|--7---7---5---5--------|
G|----6---6---6---6------|
D|------------------7----|
A|-----------------------|
E|-----------------------| 


^(This part was the hardest to transcribe, it's low in tone and hard to hear)

I told myself that it was all just make believe

e|-------------------------|
B|--------9-7b9r7----------|
G|------6---------9-6b8r6--|
D|----7--------------------|
A|-------------------------|
E|-------------------------| x2

Close my eyes and try to breathe

e|--------------------------------------|
B|----------9-7b9r7---------9-7b9r7-----|
G|------6-9-------------6-9---------9---|
D|----7---------------7-----------------|
A|--------------------------------------|
E|--------------------------------------| 

I sat right down

Low

e|-----------------------|
B|-----------------------|
G|-----------------------|
D|--4---4---2---2--------|
A|----4---4---4---4--0---|
E|-----------------------| 

High (not always present)

e|-----------------------|
B|--7---7---5---5--------|
G|----6---6---6---6------|
D|------------------7----|
A|-----------------------|
E|-----------------------| 

and hoped to god I'd never leave

e|-------------------------|
B|--------9-7b9r7----------|
G|------6---------9-6b8r6--|
D|----7--------------------|
A|-------------------------|
E|-------------------------| x2

Back to Rhythm

     A      D                    A      F#

e|---5-5-5--10-10-10--|     e|---5-5-5--2-2-2--|   | 
B|---5-5-5--10-10-10--|     B|---5-5-5--2-2-2--|   |
G|---6-6-6--11-11-11--|     G|---6-6-6--3-3-3--|   |
D|---7-7-7--12-12-12--|     D|---7-7-7--4-4-4--|   |
A|---7-7-7--12-12-12--|     A|---7-7-7--4-4-4--|   |
E|---5-5-5--10-10-10--| x3  E|---5-5-5--2-2-2--|   | x2

The second verse is the same 3 lead guitar parts except instead of chords it starts of with:


How much longer will I dream?

e|--------------------------------------|
B|----------9-7b9r7---------9-7b9r7-----|
G|------6-9-------------6-9---------9---|
D|----7---------------7-----------------|
A|--------------------------------------|
E|--------------------------------------| 

I get so tired 

Low

e|-----------------------|
B|-----------------------|
G|-----------------------|
D|--4---4---2---2--------|
A|----4---4---4---4--0---|
E|-----------------------| 

High (not always present)

e|-----------------------|
B|--7---7---5---5--------|
G|----6---6---6---6------|
D|------------------7----|
A|-----------------------|
E|-----------------------| 


of just waking up to me

e|-------------------------|
B|--------9-7b9r7----------|
G|------6---------9-6b8r6--|
D|----7--------------------|
A|-------------------------|
E|-------------------------| x2

Close my eyes and try to sleep

e|--------------------------------------|
B|----------9-7b9r7---------9-7b9r7-----|
G|------6-9-------------6-9---------9---|
D|----7---------------7-----------------|
A|--------------------------------------|
E|--------------------------------------| 

I toss and turn until

Low

e|-----------------------|
B|-----------------------|
G|-----------------------|
D|--4---4---2---2--------|
A|----4---4---4---4--0---|
E|-----------------------| 

High (not always present)

e|-----------------------|
B|--7---7---5---5--------|
G|----6---6---6---6------|
D|------------------7----|
A|-----------------------|
E|-----------------------| 

 I roll back on the street

e|-------------------------|
B|--------9-7b9r7----------|
G|------6---------9-6b8r6--|
D|----7--------------------|
A|-------------------------|
E|-------------------------| x2

---------------------------------------------------------------------------------

Solo (Correct): 

e|---------------------------------- |
B|-----------------------------------|
G|-----------------------------------|
D|--------16----------------19-18----|
A|--16-19----19b21r19--16------------|
E|-----------------------------------| x2


e|-----------------------------------------------------| |
B|----------------------------------------------17-----| |
G|-------------------------------------16-18-16----18--| |
D|--------16---------------19-18-16-18-----------------| |
A|--16-19----19b21r19--16------------------------------| |
E|-----------------------------------------------------| |x2

Solo Chords:

A (3x) to C# (1x) | 3x | then D to B


repeated a few times like in the live version


The rest of the song is the first verse lyrics played like 2nd verse, plus solo again.

Ending Riff: (It's just a major scale starting with E, I may have missed a note)

Low:

e|----------------------------------------------|
B|---2---------------------2--------------------|
G|-2-----2---------------2-----2----------------|
D|-----4-------------2-4-----4-------------2-4--|
A|---------------2-4-------------------2-4------|
E|---------2-4-5-----------------2-4-5----------| x4

High:
e|----------------------------------------------------------------------------|
B|-----14-----------------------------------14--------------------------------|
G|--14-------14--------------------------14-------14--------------------------|
D|--------16-----------------------14-16-------16---------------------14-16---|
A|---------------------------14-16------------------------------14-16---------|
E|--------------(14)-(16)-17-----------------------(14)-(16)-17---------------| x2


The high part then changes to

e|--------------------------------------------------------------------------------|
B|-----14-17------14----------------------------14--------------------------------|
G|--14---------14----------------------------14-------14--------------------------|
D|----------16-------------------------14-16-------16---------------------14-16---|
A|-------------------------------14-16------------------------------14-16---------|
E|------------------(14)-(16)-17-----------------------(14)-(16)-17---------------| 

e|------------------------------------------------------|
B|-----14-17--------------------------------------------|
G|--14---------14-14-------------------------14-16-Ring-|
D|----------16-------------------------14-16------------|
A|-------------------------------14-16------------------|
E|------------------(14)-(16)-17------------------------|




Please post changes and suggestions in the comments.

************************************

| /   slide up
| \   slide down
| h   hammer-on
| p   pull-off
| b   Bend
| r  Bend release


************************************
Добавлено: 19.03.2016
Вам также может быть интересно:
Другие материалы по этой песне:
  • Аккорды и текст

Страница создана 19.03.2016
http://primanota.ru/twin-peaks/boomers-chords.htm
Привет, Гость.
Предлагаем пройти революционный курс по гитаре.
Подарок от PrimaNota.Ru, забирай!