PrimaNota.ru - самый крупный в мире бесплатный архив песенных текстов, аккордов, табулатур и нот


Twin Atlantic - Serious Underground Dance Vibes - таба, видео

Регистрация Запомнить меня
Войти через:  Facebook Google Twitter Vk Yandex Mail.ru

Twin Atlantic - Serious Underground Dance Vibes - таба, видео

Печатать
Просмотров: 153
Уроки эстрадного вокала в Санкт-Петербурге
---------------------------------------------------------------------------
           Serious Underground Dance Vibes - Twin Atlantic
---------------------------------------------------------------------------

Tabbed by: Jonny

Tuning: Drop D (DADGBe)

Sounds good on a Tele or a Strat, with delay at the start.


Intro:     (with delay, neck pickup)

e|--------------------------------------------------|
B|--------------------------------------------------|
G|---x---x-x-x-x-x----------------------------------|
D|---x---x-x-x-x-x------ x 8 ---(then throughout)---|
A|---x---x-x-x-x-x----------------------------------|
D|---x---x-x-x-x-x----------------------------------|

Still using the delay - This bit just keeps going in the background
e|-----------------|-----------------|
B|---7----3--------|---7----8----3---|
G|-------------2---|-----------------|
D|-----------------|-----------------|
A|---5----2--------|---5----7----2---|
D|-------------5---|-----------------|

Lower the delay and switch to middle/all pickups 
e|-----------------------|-------------------------|
B|---7-------------------|-------------------------|
G|-----7--9-7/9----------|---4--------4--------7---|
D|---------------7-7/9---|------7--4-----7--4--0---|
A|-----------------------|-------------------------|
D|-----------------------|-------------------------|



That other section (when the Bass comes in):
                     This bit's quite fast and not perfect but playing
                     Something with similar notes phrasings will sound fine

e|-------------------------|------------------------------7----10/12--10-|
B|-------------------------|------10---10-10---10-10---10---10-----------|
G|-7-----7h9--9-    bend   |--7h9----9-------9-------9-------------------|
D|----7---------  slightly |---------------------------------------------|
A|-------------------------|---------------------------------------------|
D|-------------------------|---------------------------------------------|



It then goes back to start (after the muted bit) and does all that again.

The second time after that bit it goes:
(with lots of distortion/fuzz, bridge pickup)
e|----------------------------|--------------5-2----------------|
B|--3----8----10---10--7------|--10--7-----3---------8----------|
G|--2----7----9----11--9------|--11--9---2--------7-------------|
D|--0----5----0----9---7-- x2-|--9---7---0--------5------ x2 ---|
A|--0----5----0----9---7------|--9---7---0--------5-------------|
D|--0----5----0----9---7------|--9---7---0--------5-------------|

e|------2-------------------------|
B|--3----------8------10---10--7--|
G|--2-------7------9-------11--9--|                          2
D|--0-------5------0-------9---7--|  x2 After 2nd time let a 0 ring
A|--0-------5------0-------9---7--|                          0
D|--0-------5------0-------9---7--|                          0


Back to the versey type bit
Then the introduction again

Then the end:

e|------|
B|--3---|
G|--2---| 
D|--0---| 
A|--0---|                          
D|--0---|                          


************************************

| /   slide up
| \   slide down
| h   hammer-on
| p   pull-off
| ~   vibrato
| +   harmonic
| x   Mute note
| b   Bend

************************************


Добавлено: 06.06.2012
Другие материалы по этой песне:
  • Аккорды и текст

Страница создана 06.06.2012
http://primanota.ru/twin-atlantic/serious-underground-dance-vibes-chords.htm
Привет, Гость.
Предлагаем пройти революционный курс по гитаре.
Подарок от PrimaNota.Ru, забирай!