PrimaNota.ru - самый крупный в мире бесплатный архив песенных текстов, аккордов, табулатур и нот


Twin Atlantic - Ghost Of Eddie - таба, видео

Регистрация Запомнить меня
Войти через:  Facebook Google Twitter Vk Yandex Mail.ru

Twin Atlantic - Ghost Of Eddie - таба, видео

Печатать
Просмотров: 121
Уроки эстрадного вокала в Санкт-Петербурге
there was no tab on here for this great tune so i decided to try and learn it by ear so 
here goes! first tab ive done. listen to the song for rhythms.

      intro

guitar 1

e/----------------------------|
b/----------------------------|
g/----------------------------|
d/---121212-151515--444-777---|
a/---121212-151515--444-777---|
d/---121212-151515--444-777---|

guitar 2

e/-------------------------------|
b/-------------------------------|
g/---121212-151515--111111-999---|
d/---121212-151515--111111-999---|
a/---101010-131313--9-9-9--777---|
d/-------------------------------|


verses are guitar 1 intro palm muted.

"YEAH" part is same as intro for both guitars.

"Ive been caged" part

e/-------------------------------------------|
b/-------------------------------------------|
g/-------------------------------------------|
d/---555555-121212121212-777777--------------|
a/---555555-121212121212-777777--------------| (x2)
d/---555555-121212121212-777777--------------|

"you won't get better than me" part

11's not 1's.

e/-------------------------------------------------|
b/--2-2-2--333333----------------------------------|
g/--3-3-3--000000-----111111*------9---------------|
d/--0-0-0--000000-----9-9-9--------7---------------|
a/--0-4-0--555555-----9-9-9--------7---------------|
d/--0-0-4--555555-----9-9-9--------7---------------|

awesome part :D "everybody screamed"

e/-------------------------------------------------|
b/-------------------------------------------------|
g/-------------------------------------------------|
d/--12b-o-10b-0-12b-0-10b-0-12b-0-10b-121212121212-|
a/--12b-0-10b-0-12b-0-10b-0-12b-0-10b-121212121212-|
d/--12b-0-10b-0-12b-0-10b-0-12b-0-10b-121212121212-|

^again listen to the song for the rhythm and for the 12b's and 10b's bend the strings downwards

thats pretty much every part to the song, use the "everybody screamed part for the outtro.
Добавлено: 30.06.2013
Другие материалы по этой песне:
  • Аккорды и текст

Страница создана 30.06.2013
http://primanota.ru/twin-atlantic/ghost-of-eddie-chords.htm
Привет, Гость.
Предлагаем пройти революционный курс по гитаре.
Подарок от PrimaNota.Ru, забирай!