PrimaNota.ru - самый крупный в мире бесплатный архив песенных текстов, аккордов, табулатур и нот


Twin Atlantic - Fall Into The Party - аккорды и текст, видео

Регистрация Запомнить меня
Войти через:  Facebook Google Twitter Vk Yandex Mail.ru

Twin Atlantic - Fall Into The Party - аккорды и текст, видео

Печатать
Просмотров: 146
Fall Into The Party
Twin Atlantic
-------------------------------------------------------------------------------
                             FALL INTO THE PARTY - Twin Atlantic
-------------------------------------------------------------------------------
Tabbed by:molClark
Tuning:Standard

There's some tab in here, but haven't listed it as a tab as not all of it's there. Hope you like!

PS If you're unsure about playing chords like Bb5 (power chords) you can play a major or minor chord instead.
For this song, I'll list what major/minor chords you can play in the place of the power chords. Hope that 
makes sense:

Bb5 = Bb
G#5 = G#m
F5 = F
C5 = C

~~~~~

Intro

   Bb5   G#5 F5         Bb5 F5                 Bb5  G#5
e|-----------------------------------------|---------------------------------|
B|-----------------------------------------|---After 2nd time----------------|
G|----------------------3------------------|---------------------------------|
D|--8-8-8-6-3-3-3-3-3-3-3---3-3-3-3--------|---8-8-8-6-----------------------|
A|--8-8-8-6-3-3-3-3-3-3-1---3-3-3-3--------|---8-8-8-6-----------------------|
E|--6-6-6-4-1-1-1-1-1-1-----1-1-1-1---(x2)-|---6-6-6-4-----------------------|


Verse:

F5                       Bb5                      
Waiting for the night to implode
F5                        Bb5
Anticipating drama I hope you know
F5                                           Bb5    G#5
A darker place where we can get together and rage

F5
Easy, easy, easy
I hope you know I'm only teasing, teasing, teasing
And I just found another reason, reason, reason
                                Bb5       G#5
For why you make me wanna scream


Pre chorus:

Bb5
Yeah, yeah, yeah, yeah, yeah, yeah, yeah, yeah
C5
I'm the only one
F5
Yeah, yeah, yeah, yeah, yeah, yeah, yeah, yeah
C5
I'm a loaded gun
Bb5
Something in a mirror made it easy to see
C5 
I'm just an idiot staring at me



Chorus:

Bb5    F5
Fall into the party
Bb5               F5
Make friends with everybody
C5        F5
Why so serious?
           C5           F5
Aren't you dying to get lost?
Bb5                F5
Something tells me I can't be saved
Bb5       F5
I live my life on the edge
C5            F5
This is how I roll
       C5          F5
When I feel invincible

Chorus Lead Guitar:(happening over the chorus chords)
e--------------------------------------------|-------------------------------------|
B---13-13-13-13-13-13-13---------------------|-------------------------------------|
G------------------------------------10------|--12/13br\12-10-----12/13br\12-10----|
D------------------------------10h12---------|----------------------------------12-|
A-------------------------10h12--------------|-------------------------------------|
E---------------------------------------(x2)-|-------------------------------------|



Verse:

F5                     Bb5
Watching both my pupils dilate
F5                         Bb5
Flashing lights and adverts I hate
F5                            Bb5     G#5                 
Every single fucker inside the room

F5
Come on, come on, come on, 
I just don't understand the problem, problem, problem
I just want a little fun with fun with fun with
              Bb5      G#5
Everybody who plays


Pre chorus:

Bb5
Yeah, yeah, yeah, yeah, yeah, yeah, yeah, yeah
C5
I'm the only one
F5
Yeah, yeah, yeah, yeah, yeah, yeah, yeah, yeah
C5
I'm a loaded gun
Bb5
Something in a mirror made it easy to see
C5 
I'm just an idiot staring at me


Chorus:

Bb5    F5
Fall into the party
Bb5               F5
Make friends with everybody
C5        F5
Why so serious?
           C5           F5
Aren't you dying to get lost?
Bb5                F5
Something tells me I can't be saved
Bb5       F5
I live my life on the edge
C5            F5
This is how I roll
       C5          F5
When I feel invincible

Chorus Lead Guitar:(happening over the chorus chords)
e--------------------------------------------|-------------------------------------|
B---13-13-13-13-13-13-13---------------------|-------------------------------------|
G------------------------------------10------|--12/13br\12-10-----12/13br\12-10----|
D------------------------------10h12---------|----------------------------------12-|
A-------------------------10h12--------------|-------------------------------------|
E---------------------------------------(x2)-|-------------------------------------|



Bridge/solo

Rhythm Guitar:

   Bb5   G#5 F5         Bb5 F5                 Bb5  G#5
e|-----------------------------------------|---------------------------------|
B|-----------------------------------------|---After 2nd time----------------|
G|----------------------3------------------|---------------------------------|
D|--8-8-8-6-3-3-3-3-3-3-3---3-3-3-3--------|---8-8-8-6-----------------------|
A|--8-8-8-6-3-3-3-3-3-3-1---3-3-3-3--------|---8-8-8-6-----------------------|
E|--6-6-6-4-1-1-1-1-1-1-----1-1-1-1---(x2)-|---6-6-6-4-----------------------|



Lead Guitar/Solo:
e-------------------------/17-17-17-|-----------------------------13-|
B---13-13-13-13-13-13-13-13---------|--13-13-13-13-13-13-13-13-------|
G-----------------------------------|-------------------------14-----|
D-----------------------------------|---------------------------15---|
A-----------------------------------|--------------------------------|
E-----------------------------------|--------------------------------|

e-------------------------/17-17-17-|--13--13---------|
B--13-13-13-13-13-13-13-13----------|----10--10--13b--|
G-----------------------------------|-----------------|
D-----------------------------------|-----------------|
A-----------------------------------|-----------------|
E-----------------------------------|-----------------|

After one time of that the singing comes in:(solo repeats over the top of this)

F5                       Bb5
Come on, come on, come on
F5                         Bb5
Come on, come on, come on, oh!
F5                       Bb5
Come on, come on, come on
F5                       C5
Come on, come on, come on


F5                       
Waiting for the night to implode
Anticipating drama I hope you know
                                             Bb5    G#5
A darker place where we can get together and rage


Chorus:

Bb5    F5
Fall into the party
Bb5               F5
Make friends with everybody
C5        F5
Why so serious?
           C5           F5
Aren't you dying to get lost?
Bb5                F5
Something tells me I can't be saved
Bb5       F5
I live my life on the edge
C5            F5
This is how I roll
       C5          F5
When I feel invincible

Chorus Lead Guitar:(happening over the chorus chords)
e--------------------------------------------|-------------------------------------|
B---13-13-13-13-13-13-13---------------------|-------------------------------------|
G------------------------------------10------|--12/13br\12-10-----12/13br\12-10----|
D------------------------------10h12---------|----------------------------------12-|
A-------------------------10h12--------------|-------------------------------------|
E---------------------------------------(x2)-|-------------------------------------|



Ending:

Rhythm:
   Bb5   G#5 F5         Bb5 F5                 Bb5  G#5
e|-----------------------------------------|---------------------------------|
B|-----------------------------------------|---After 2nd time----------------|
G|----------------------3------------------|---------------------------------|
D|--8-8-8-6-3-3-3-3-3-3-3---3-3-3-3--------|---8-8-8-6-----------------------|
A|--8-8-8-6-3-3-3-3-3-3-1---3-3-3-3--------|---8-8-8-6-----------------------|
E|--6-6-6-4-1-1-1-1-1-1-----1-1-1-1---(x2)-|---6-6-6-4-----------------------|

Lead: (played over rhythm)
e-------------------------/17-17-17-|-----------------------------13-|
B---13-13-13-13-13-13-13-13---------|--13-13-13-13-13-13-13-13-------|
G-----------------------------------|-------------------------14-----|
D-----------------------------------|---------------------------15---|
A-----------------------------------|--------------------------------|
E-----------------------------------|--------------------------------|

e-------------------------/17-17-17-|---17--17--17--17--17--17-17-17-21-21-21-21\--|
B--13-13-13-13-13-13-13-13----------|-13--13--13--13--13---------------------------|
G-----------------------------------|----------------------------------------------|
D-----------------------------------|----------------------------------------------|
A-----------------------------------|----------------------------------------------|
E-----------------------------------|----------------------------------------------|

End on F5


Добавлено: 01.08.2015
Другие материалы по этой песне:
  • Аккорды и текст

Страница создана 01.08.2015
http://primanota.ru/twin-atlantic/fall-into-party-chords.htm
Привет, Гость.
Предлагаем пройти революционный курс по гитаре.
Подарок от PrimaNota.Ru, забирай!